ISO-10303-21;
HEADER;
/* Generated by software containing ST-Developer
 * from STEP Tools, Inc. (www.steptools.com) 
 */

FILE_DESCRIPTION(
/* description */ (''),
/* implementation_level */ '2;1');

FILE_NAME(
/* name */ 'Terminal_Adapter_0s v1.step',
/* time_stamp */ '2023-03-24T10:13:23+01:00',
/* author */ (''),
/* organization */ (''),
/* preprocessor_version */ 'ST-DEVELOPER v19.2',
/* originating_system */ 'Autodesk Translation Framework v11.17.0.187',

/* authorisation */ '');

FILE_SCHEMA (('AUTOMOTIVE_DESIGN { 1 0 10303 214 3 1 1 }'));
ENDSEC;

DATA;
#10=MECHANICAL_DESIGN_GEOMETRIC_PRESENTATION_REPRESENTATION('',(#13),#648);
#11=SHAPE_REPRESENTATION_RELATIONSHIP('SRR','None',#655,#12);
#12=ADVANCED_BREP_SHAPE_REPRESENTATION('',(#14),#647);
#13=STYLED_ITEM('',(#665),#14);
#14=MANIFOLD_SOLID_BREP('K\X\F6rper1',#376);
#15=FACE_BOUND('',#55,.T.);
#16=FACE_BOUND('',#57,.T.);
#17=FACE_BOUND('',#63,.T.);
#18=FACE_BOUND('',#64,.T.);
#19=FACE_BOUND('',#65,.T.);
#20=FACE_BOUND('',#66,.T.);
#21=FACE_BOUND('',#77,.T.);
#22=FACE_BOUND('',#78,.T.);
#23=PLANE('',#398);
#24=PLANE('',#399);
#25=PLANE('',#403);
#26=PLANE('',#404);
#27=PLANE('',#407);
#28=PLANE('',#408);
#29=PLANE('',#416);
#30=PLANE('',#419);
#31=PLANE('',#422);
#32=PLANE('',#428);
#33=FACE_OUTER_BOUND('',#52,.T.);
#34=FACE_OUTER_BOUND('',#53,.T.);
#35=FACE_OUTER_BOUND('',#54,.T.);
#36=FACE_OUTER_BOUND('',#56,.T.);
#37=FACE_OUTER_BOUND('',#58,.T.);
#38=FACE_OUTER_BOUND('',#59,.T.);
#39=FACE_OUTER_BOUND('',#60,.T.);
#40=FACE_OUTER_BOUND('',#61,.T.);
#41=FACE_OUTER_BOUND('',#62,.T.);
#42=FACE_OUTER_BOUND('',#67,.T.);
#43=FACE_OUTER_BOUND('',#68,.T.);
#44=FACE_OUTER_BOUND('',#69,.T.);
#45=FACE_OUTER_BOUND('',#70,.T.);
#46=FACE_OUTER_BOUND('',#71,.T.);
#47=FACE_OUTER_BOUND('',#72,.T.);
#48=FACE_OUTER_BOUND('',#73,.T.);
#49=FACE_OUTER_BOUND('',#74,.T.);
#50=FACE_OUTER_BOUND('',#75,.T.);
#51=FACE_OUTER_BOUND('',#76,.T.);
#52=EDGE_LOOP('',(#246,#247,#248,#249));
#53=EDGE_LOOP('',(#250,#251,#252,#253,#254,#255,#256,#257));
#54=EDGE_LOOP('',(#258));
#55=EDGE_LOOP('',(#259));
#56=EDGE_LOOP('',(#260,#261,#262,#263,#264,#265,#266,#267,#268));
#57=EDGE_LOOP('',(#269));
#58=EDGE_LOOP('',(#270,#271,#272,#273));
#59=EDGE_LOOP('',(#274,#275,#276,#277));
#60=EDGE_LOOP('',(#278,#279,#280,#281));
#61=EDGE_LOOP('',(#282,#283,#284,#285));
#62=EDGE_LOOP('',(#286,#287,#288,#289,#290,#291,#292,#293));
#63=EDGE_LOOP('',(#294));
#64=EDGE_LOOP('',(#295));
#65=EDGE_LOOP('',(#296));
#66=EDGE_LOOP('',(#297));
#67=EDGE_LOOP('',(#298,#299,#300,#301));
#68=EDGE_LOOP('',(#302,#303,#304,#305,#306,#307));
#69=EDGE_LOOP('',(#308,#309,#310,#311));
#70=EDGE_LOOP('',(#312,#313,#314,#315,#316,#317));
#71=EDGE_LOOP('',(#318,#319,#320,#321));
#72=EDGE_LOOP('',(#322,#323,#324,#325));
#73=EDGE_LOOP('',(#326,#327,#328,#329));
#74=EDGE_LOOP('',(#330,#331,#332,#333));
#75=EDGE_LOOP('',(#334,#335,#336,#337));
#76=EDGE_LOOP('',(#338,#339,#340,#341,#342,#343,#344,#345));
#77=EDGE_LOOP('',(#346));
#78=EDGE_LOOP('',(#347));
#79=LINE('',#545,#110);
#80=LINE('',#550,#111);
#81=LINE('',#554,#112);
#82=LINE('',#558,#113);
#83=LINE('',#564,#114);
#84=LINE('',#566,#115);
#85=LINE('',#570,#116);
#86=LINE('',#574,#117);
#87=LINE('',#575,#118);
#88=LINE('',#580,#119);
#89=LINE('',#581,#120);
#90=LINE('',#584,#121);
#91=LINE('',#585,#122);
#92=LINE('',#590,#123);
#93=LINE('',#591,#124);
#94=LINE('',#594,#125);
#95=LINE('',#595,#126);
#96=LINE('',#598,#127);
#97=LINE('',#602,#128);
#98=LINE('',#606,#129);
#99=LINE('',#615,#130);
#100=LINE('',#618,#131);
#101=LINE('',#619,#132);
#102=LINE('',#624,#133);
#103=LINE('',#625,#134);
#104=LINE('',#627,#135);
#105=LINE('',#630,#136);
#106=LINE('',#633,#137);
#107=LINE('',#635,#138);
#108=LINE('',#639,#139);
#109=LINE('',#643,#140);
#110=VECTOR('',#435,1.);
#111=VECTOR('',#440,10.);
#112=VECTOR('',#443,10.);
#113=VECTOR('',#446,10.5);
#114=VECTOR('',#455,10.);
#115=VECTOR('',#456,10.);
#116=VECTOR('',#459,10.);
#117=VECTOR('',#462,10.);
#118=VECTOR('',#463,10.);
#119=VECTOR('',#468,10.);
#120=VECTOR('',#469,10.);
#121=VECTOR('',#472,10.);
#122=VECTOR('',#473,10.);
#123=VECTOR('',#478,10.);
#124=VECTOR('',#479,10.);
#125=VECTOR('',#482,10.);
#126=VECTOR('',#483,10.);
#127=VECTOR('',#486,10.);
#128=VECTOR('',#489,10.);
#129=VECTOR('',#492,10.);
#130=VECTOR('',#503,10.);
#131=VECTOR('',#506,10.);
#132=VECTOR('',#507,10.);
#133=VECTOR('',#512,10.);
#134=VECTOR('',#513,10.);
#135=VECTOR('',#516,10.);
#136=VECTOR('',#519,10.);
#137=VECTOR('',#524,10.);
#138=VECTOR('',#527,2.5);
#139=VECTOR('',#532,2.5);
#140=VECTOR('',#537,2.5);
#141=CIRCLE('',#391,1.);
#142=CIRCLE('',#392,1.);
#143=CIRCLE('',#394,10.5);
#144=CIRCLE('',#395,10.5);
#145=CIRCLE('',#396,10.5);
#146=CIRCLE('',#397,10.5);
#147=CIRCLE('',#400,2.);
#148=CIRCLE('',#401,2.);
#149=CIRCLE('',#402,2.5175);
#150=CIRCLE('',#406,2.);
#151=CIRCLE('',#409,2.);
#152=CIRCLE('',#410,2.);
#153=CIRCLE('',#411,2.);
#154=CIRCLE('',#412,2.5175);
#155=CIRCLE('',#413,2.5175);
#156=CIRCLE('',#414,2.5175);
#157=CIRCLE('',#418,2.);
#158=CIRCLE('',#421,2.);
#159=CIRCLE('',#425,2.5175);
#160=CIRCLE('',#427,2.5175);
#161=VERTEX_POINT('',#542);
#162=VERTEX_POINT('',#544);
#163=VERTEX_POINT('',#548);
#164=VERTEX_POINT('',#549);
#165=VERTEX_POINT('',#551);
#166=VERTEX_POINT('',#553);
#167=VERTEX_POINT('',#555);
#168=VERTEX_POINT('',#557);
#169=VERTEX_POINT('',#563);
#170=VERTEX_POINT('',#565);
#171=VERTEX_POINT('',#567);
#172=VERTEX_POINT('',#569);
#173=VERTEX_POINT('',#571);
#174=VERTEX_POINT('',#573);
#175=VERTEX_POINT('',#576);
#176=VERTEX_POINT('',#579);
#177=VERTEX_POINT('',#583);
#178=VERTEX_POINT('',#587);
#179=VERTEX_POINT('',#588);
#180=VERTEX_POINT('',#593);
#181=VERTEX_POINT('',#597);
#182=VERTEX_POINT('',#599);
#183=VERTEX_POINT('',#601);
#184=VERTEX_POINT('',#603);
#185=VERTEX_POINT('',#605);
#186=VERTEX_POINT('',#608);
#187=VERTEX_POINT('',#610);
#188=VERTEX_POINT('',#612);
#189=VERTEX_POINT('',#617);
#190=VERTEX_POINT('',#621);
#191=VERTEX_POINT('',#622);
#192=VERTEX_POINT('',#629);
#193=VERTEX_POINT('',#637);
#194=VERTEX_POINT('',#641);
#195=EDGE_CURVE('',#161,#161,#141,.T.);
#196=EDGE_CURVE('',#161,#162,#79,.T.);
#197=EDGE_CURVE('',#162,#162,#142,.T.);
#198=EDGE_CURVE('',#163,#164,#80,.T.);
#199=EDGE_CURVE('',#165,#163,#143,.T.);
#200=EDGE_CURVE('',#166,#165,#81,.T.);
#201=EDGE_CURVE('',#167,#166,#144,.T.);
#202=EDGE_CURVE('',#167,#168,#82,.T.);
#203=EDGE_CURVE('',#168,#168,#145,.T.);
#204=EDGE_CURVE('',#164,#167,#146,.T.);
#205=EDGE_CURVE('',#169,#166,#83,.T.);
#206=EDGE_CURVE('',#169,#170,#84,.T.);
#207=EDGE_CURVE('',#171,#170,#147,.T.);
#208=EDGE_CURVE('',#172,#171,#85,.T.);
#209=EDGE_CURVE('',#173,#172,#148,.T.);
#210=EDGE_CURVE('',#173,#174,#86,.T.);
#211=EDGE_CURVE('',#164,#174,#87,.T.);
#212=EDGE_CURVE('',#175,#175,#149,.F.);
#213=EDGE_CURVE('',#176,#165,#88,.T.);
#214=EDGE_CURVE('',#169,#176,#89,.T.);
#215=EDGE_CURVE('',#177,#174,#90,.T.);
#216=EDGE_CURVE('',#163,#177,#91,.T.);
#217=EDGE_CURVE('',#178,#179,#150,.T.);
#218=EDGE_CURVE('',#179,#171,#92,.T.);
#219=EDGE_CURVE('',#170,#178,#93,.T.);
#220=EDGE_CURVE('',#180,#179,#94,.T.);
#221=EDGE_CURVE('',#172,#180,#95,.T.);
#222=EDGE_CURVE('',#178,#181,#96,.T.);
#223=EDGE_CURVE('',#182,#181,#151,.T.);
#224=EDGE_CURVE('',#183,#182,#97,.T.);
#225=EDGE_CURVE('',#184,#183,#152,.T.);
#226=EDGE_CURVE('',#185,#184,#98,.T.);
#227=EDGE_CURVE('',#180,#185,#153,.T.);
#228=EDGE_CURVE('',#186,#186,#154,.F.);
#229=EDGE_CURVE('',#187,#187,#155,.F.);
#230=EDGE_CURVE('',#188,#188,#156,.F.);
#231=EDGE_CURVE('',#185,#173,#99,.T.);
#232=EDGE_CURVE('',#189,#184,#100,.T.);
#233=EDGE_CURVE('',#177,#189,#101,.T.);
#234=EDGE_CURVE('',#190,#191,#157,.T.);
#235=EDGE_CURVE('',#191,#182,#102,.T.);
#236=EDGE_CURVE('',#181,#190,#103,.T.);
#237=EDGE_CURVE('',#176,#190,#104,.T.);
#238=EDGE_CURVE('',#183,#192,#105,.T.);
#239=EDGE_CURVE('',#192,#189,#158,.T.);
#240=EDGE_CURVE('',#191,#192,#106,.T.);
#241=EDGE_CURVE('',#186,#175,#107,.T.);
#242=EDGE_CURVE('',#193,#193,#159,.T.);
#243=EDGE_CURVE('',#193,#187,#108,.T.);
#244=EDGE_CURVE('',#194,#194,#160,.T.);
#245=EDGE_CURVE('',#194,#188,#109,.T.);
#246=ORIENTED_EDGE('',*,*,#195,.F.);
#247=ORIENTED_EDGE('',*,*,#196,.T.);
#248=ORIENTED_EDGE('',*,*,#197,.F.);
#249=ORIENTED_EDGE('',*,*,#196,.F.);
#250=ORIENTED_EDGE('',*,*,#198,.F.);
#251=ORIENTED_EDGE('',*,*,#199,.F.);
#252=ORIENTED_EDGE('',*,*,#200,.F.);
#253=ORIENTED_EDGE('',*,*,#201,.F.);
#254=ORIENTED_EDGE('',*,*,#202,.T.);
#255=ORIENTED_EDGE('',*,*,#203,.T.);
#256=ORIENTED_EDGE('',*,*,#202,.F.);
#257=ORIENTED_EDGE('',*,*,#204,.F.);
#258=ORIENTED_EDGE('',*,*,#203,.F.);
#259=ORIENTED_EDGE('',*,*,#195,.T.);
#260=ORIENTED_EDGE('',*,*,#204,.T.);
#261=ORIENTED_EDGE('',*,*,#201,.T.);
#262=ORIENTED_EDGE('',*,*,#205,.F.);
#263=ORIENTED_EDGE('',*,*,#206,.T.);
#264=ORIENTED_EDGE('',*,*,#207,.F.);
#265=ORIENTED_EDGE('',*,*,#208,.F.);
#266=ORIENTED_EDGE('',*,*,#209,.F.);
#267=ORIENTED_EDGE('',*,*,#210,.T.);
#268=ORIENTED_EDGE('',*,*,#211,.F.);
#269=ORIENTED_EDGE('',*,*,#212,.T.);
#270=ORIENTED_EDGE('',*,*,#200,.T.);
#271=ORIENTED_EDGE('',*,*,#213,.F.);
#272=ORIENTED_EDGE('',*,*,#214,.F.);
#273=ORIENTED_EDGE('',*,*,#205,.T.);
#274=ORIENTED_EDGE('',*,*,#198,.T.);
#275=ORIENTED_EDGE('',*,*,#211,.T.);
#276=ORIENTED_EDGE('',*,*,#215,.F.);
#277=ORIENTED_EDGE('',*,*,#216,.F.);
#278=ORIENTED_EDGE('',*,*,#217,.T.);
#279=ORIENTED_EDGE('',*,*,#218,.T.);
#280=ORIENTED_EDGE('',*,*,#207,.T.);
#281=ORIENTED_EDGE('',*,*,#219,.T.);
#282=ORIENTED_EDGE('',*,*,#218,.F.);
#283=ORIENTED_EDGE('',*,*,#220,.F.);
#284=ORIENTED_EDGE('',*,*,#221,.F.);
#285=ORIENTED_EDGE('',*,*,#208,.T.);
#286=ORIENTED_EDGE('',*,*,#217,.F.);
#287=ORIENTED_EDGE('',*,*,#222,.T.);
#288=ORIENTED_EDGE('',*,*,#223,.F.);
#289=ORIENTED_EDGE('',*,*,#224,.F.);
#290=ORIENTED_EDGE('',*,*,#225,.F.);
#291=ORIENTED_EDGE('',*,*,#226,.F.);
#292=ORIENTED_EDGE('',*,*,#227,.F.);
#293=ORIENTED_EDGE('',*,*,#220,.T.);
#294=ORIENTED_EDGE('',*,*,#197,.T.);
#295=ORIENTED_EDGE('',*,*,#228,.T.);
#296=ORIENTED_EDGE('',*,*,#229,.T.);
#297=ORIENTED_EDGE('',*,*,#230,.T.);
#298=ORIENTED_EDGE('',*,*,#227,.T.);
#299=ORIENTED_EDGE('',*,*,#231,.T.);
#300=ORIENTED_EDGE('',*,*,#209,.T.);
#301=ORIENTED_EDGE('',*,*,#221,.T.);
#302=ORIENTED_EDGE('',*,*,#231,.F.);
#303=ORIENTED_EDGE('',*,*,#226,.T.);
#304=ORIENTED_EDGE('',*,*,#232,.F.);
#305=ORIENTED_EDGE('',*,*,#233,.F.);
#306=ORIENTED_EDGE('',*,*,#215,.T.);
#307=ORIENTED_EDGE('',*,*,#210,.F.);
#308=ORIENTED_EDGE('',*,*,#234,.T.);
#309=ORIENTED_EDGE('',*,*,#235,.T.);
#310=ORIENTED_EDGE('',*,*,#223,.T.);
#311=ORIENTED_EDGE('',*,*,#236,.T.);
#312=ORIENTED_EDGE('',*,*,#219,.F.);
#313=ORIENTED_EDGE('',*,*,#206,.F.);
#314=ORIENTED_EDGE('',*,*,#214,.T.);
#315=ORIENTED_EDGE('',*,*,#237,.T.);
#316=ORIENTED_EDGE('',*,*,#236,.F.);
#317=ORIENTED_EDGE('',*,*,#222,.F.);
#318=ORIENTED_EDGE('',*,*,#225,.T.);
#319=ORIENTED_EDGE('',*,*,#238,.T.);
#320=ORIENTED_EDGE('',*,*,#239,.T.);
#321=ORIENTED_EDGE('',*,*,#232,.T.);
#322=ORIENTED_EDGE('',*,*,#235,.F.);
#323=ORIENTED_EDGE('',*,*,#240,.T.);
#324=ORIENTED_EDGE('',*,*,#238,.F.);
#325=ORIENTED_EDGE('',*,*,#224,.T.);
#326=ORIENTED_EDGE('',*,*,#228,.F.);
#327=ORIENTED_EDGE('',*,*,#241,.T.);
#328=ORIENTED_EDGE('',*,*,#212,.F.);
#329=ORIENTED_EDGE('',*,*,#241,.F.);
#330=ORIENTED_EDGE('',*,*,#242,.F.);
#331=ORIENTED_EDGE('',*,*,#243,.T.);
#332=ORIENTED_EDGE('',*,*,#229,.F.);
#333=ORIENTED_EDGE('',*,*,#243,.F.);
#334=ORIENTED_EDGE('',*,*,#244,.F.);
#335=ORIENTED_EDGE('',*,*,#245,.T.);
#336=ORIENTED_EDGE('',*,*,#230,.F.);
#337=ORIENTED_EDGE('',*,*,#245,.F.);
#338=ORIENTED_EDGE('',*,*,#199,.T.);
#339=ORIENTED_EDGE('',*,*,#216,.T.);
#340=ORIENTED_EDGE('',*,*,#233,.T.);
#341=ORIENTED_EDGE('',*,*,#239,.F.);
#342=ORIENTED_EDGE('',*,*,#240,.F.);
#343=ORIENTED_EDGE('',*,*,#234,.F.);
#344=ORIENTED_EDGE('',*,*,#237,.F.);
#345=ORIENTED_EDGE('',*,*,#213,.T.);
#346=ORIENTED_EDGE('',*,*,#242,.T.);
#347=ORIENTED_EDGE('',*,*,#244,.T.);
#348=CYLINDRICAL_SURFACE('',#390,1.);
#349=CYLINDRICAL_SURFACE('',#393,10.5);
#350=CYLINDRICAL_SURFACE('',#405,2.);
#351=CYLINDRICAL_SURFACE('',#415,2.);
#352=CYLINDRICAL_SURFACE('',#417,2.);
#353=CYLINDRICAL_SURFACE('',#420,2.);
#354=CYLINDRICAL_SURFACE('',#423,2.5175);
#355=CYLINDRICAL_SURFACE('',#424,2.5175);
#356=CYLINDRICAL_SURFACE('',#426,2.5175);
#357=ADVANCED_FACE('',(#33),#348,.F.);
#358=ADVANCED_FACE('',(#34),#349,.F.);
#359=ADVANCED_FACE('',(#35,#15),#23,.T.);
#360=ADVANCED_FACE('',(#36,#16),#24,.F.);
#361=ADVANCED_FACE('',(#37),#25,.F.);
#362=ADVANCED_FACE('',(#38),#26,.F.);
#363=ADVANCED_FACE('',(#39),#350,.T.);
#364=ADVANCED_FACE('',(#40),#27,.T.);
#365=ADVANCED_FACE('',(#41,#17,#18,#19,#20),#28,.F.);
#366=ADVANCED_FACE('',(#42),#351,.T.);
#367=ADVANCED_FACE('',(#43),#29,.T.);
#368=ADVANCED_FACE('',(#44),#352,.T.);
#369=ADVANCED_FACE('',(#45),#30,.T.);
#370=ADVANCED_FACE('',(#46),#353,.T.);
#371=ADVANCED_FACE('',(#47),#31,.T.);
#372=ADVANCED_FACE('',(#48),#354,.F.);
#373=ADVANCED_FACE('',(#49),#355,.F.);
#374=ADVANCED_FACE('',(#50),#356,.F.);
#375=ADVANCED_FACE('',(#51,#21,#22),#32,.T.);
#376=CLOSED_SHELL('',(#357,#358,#359,#360,#361,#362,#363,#364,#365,#366,
#367,#368,#369,#370,#371,#372,#373,#374,#375));
#377=DERIVED_UNIT_ELEMENT(#379,1.);
#378=DERIVED_UNIT_ELEMENT(#650,-3.);
#379=(
MASS_UNIT()
NAMED_UNIT(*)
SI_UNIT(.KILO.,.GRAM.)
);
#380=DERIVED_UNIT((#377,#378));
#381=MEASURE_REPRESENTATION_ITEM('density measure',
POSITIVE_RATIO_MEASURE(7850.),#380);
#382=PROPERTY_DEFINITION_REPRESENTATION(#387,#384);
#383=PROPERTY_DEFINITION_REPRESENTATION(#388,#385);
#384=REPRESENTATION('material name',(#386),#647);
#385=REPRESENTATION('density',(#381),#647);
#386=DESCRIPTIVE_REPRESENTATION_ITEM('Stahl','Stahl');
#387=PROPERTY_DEFINITION('material property','material name',#657);
#388=PROPERTY_DEFINITION('material property','density of part',#657);
#389=AXIS2_PLACEMENT_3D('placement',#540,#429,#430);
#390=AXIS2_PLACEMENT_3D('',#541,#431,#432);
#391=AXIS2_PLACEMENT_3D('',#543,#433,#434);
#392=AXIS2_PLACEMENT_3D('',#546,#436,#437);
#393=AXIS2_PLACEMENT_3D('',#547,#438,#439);
#394=AXIS2_PLACEMENT_3D('',#552,#441,#442);
#395=AXIS2_PLACEMENT_3D('',#556,#444,#445);
#396=AXIS2_PLACEMENT_3D('',#559,#447,#448);
#397=AXIS2_PLACEMENT_3D('',#560,#449,#450);
#398=AXIS2_PLACEMENT_3D('',#561,#451,#452);
#399=AXIS2_PLACEMENT_3D('',#562,#453,#454);
#400=AXIS2_PLACEMENT_3D('',#568,#457,#458);
#401=AXIS2_PLACEMENT_3D('',#572,#460,#461);
#402=AXIS2_PLACEMENT_3D('',#577,#464,#465);
#403=AXIS2_PLACEMENT_3D('',#578,#466,#467);
#404=AXIS2_PLACEMENT_3D('',#582,#470,#471);
#405=AXIS2_PLACEMENT_3D('',#586,#474,#475);
#406=AXIS2_PLACEMENT_3D('',#589,#476,#477);
#407=AXIS2_PLACEMENT_3D('',#592,#480,#481);
#408=AXIS2_PLACEMENT_3D('',#596,#484,#485);
#409=AXIS2_PLACEMENT_3D('',#600,#487,#488);
#410=AXIS2_PLACEMENT_3D('',#604,#490,#491);
#411=AXIS2_PLACEMENT_3D('',#607,#493,#494);
#412=AXIS2_PLACEMENT_3D('',#609,#495,#496);
#413=AXIS2_PLACEMENT_3D('',#611,#497,#498);
#414=AXIS2_PLACEMENT_3D('',#613,#499,#500);
#415=AXIS2_PLACEMENT_3D('',#614,#501,#502);
#416=AXIS2_PLACEMENT_3D('',#616,#504,#505);
#417=AXIS2_PLACEMENT_3D('',#620,#508,#509);
#418=AXIS2_PLACEMENT_3D('',#623,#510,#511);
#419=AXIS2_PLACEMENT_3D('',#626,#514,#515);
#420=AXIS2_PLACEMENT_3D('',#628,#517,#518);
#421=AXIS2_PLACEMENT_3D('',#631,#520,#521);
#422=AXIS2_PLACEMENT_3D('',#632,#522,#523);
#423=AXIS2_PLACEMENT_3D('',#634,#525,#526);
#424=AXIS2_PLACEMENT_3D('',#636,#528,#529);
#425=AXIS2_PLACEMENT_3D('',#638,#530,#531);
#426=AXIS2_PLACEMENT_3D('',#640,#533,#534);
#427=AXIS2_PLACEMENT_3D('',#642,#535,#536);
#428=AXIS2_PLACEMENT_3D('',#644,#538,#539);
#429=DIRECTION('axis',(0.,0.,1.));
#430=DIRECTION('refdir',(1.,0.,0.));
#431=DIRECTION('center_axis',(0.,0.,-1.));
#432=DIRECTION('ref_axis',(-1.,0.,0.));
#433=DIRECTION('center_axis',(0.,0.,-1.));
#434=DIRECTION('ref_axis',(-1.,0.,0.));
#435=DIRECTION('',(0.,0.,-1.));
#436=DIRECTION('center_axis',(0.,0.,1.));
#437=DIRECTION('ref_axis',(-1.,0.,0.));
#438=DIRECTION('center_axis',(0.,0.,-1.));
#439=DIRECTION('ref_axis',(-1.,0.,0.));
#440=DIRECTION('',(0.,0.,-1.));
#441=DIRECTION('center_axis',(0.,0.,-1.));
#442=DIRECTION('ref_axis',(-1.,0.,0.));
#443=DIRECTION('',(0.,0.,1.));
#444=DIRECTION('center_axis',(0.,0.,-1.));
#445=DIRECTION('ref_axis',(-1.,0.,0.));
#446=DIRECTION('',(0.,0.,-1.));
#447=DIRECTION('center_axis',(0.,0.,-1.));
#448=DIRECTION('ref_axis',(-1.,0.,0.));
#449=DIRECTION('center_axis',(0.,0.,-1.));
#450=DIRECTION('ref_axis',(-1.,0.,0.));
#451=DIRECTION('center_axis',(0.,0.,1.));
#452=DIRECTION('ref_axis',(-1.,0.,0.));
#453=DIRECTION('center_axis',(0.,0.,-1.));
#454=DIRECTION('ref_axis',(-1.,0.,0.));
#455=DIRECTION('',(0.,1.,0.));
#456=DIRECTION('',(1.,0.,0.));
#457=DIRECTION('center_axis',(0.,0.,-1.));
#458=DIRECTION('ref_axis',(0.70710678118655,-0.707106781186545,0.));
#459=DIRECTION('',(0.,-1.,0.));
#460=DIRECTION('center_axis',(0.,0.,-1.));
#461=DIRECTION('ref_axis',(0.707106781186548,0.707106781186548,0.));
#462=DIRECTION('',(-1.,0.,0.));
#463=DIRECTION('',(0.,1.,0.));
#464=DIRECTION('center_axis',(0.,0.,1.));
#465=DIRECTION('ref_axis',(1.,0.,0.));
#466=DIRECTION('center_axis',(-1.,0.,0.));
#467=DIRECTION('ref_axis',(0.,1.,0.));
#468=DIRECTION('',(0.,1.,0.));
#469=DIRECTION('',(0.,0.,1.));
#470=DIRECTION('center_axis',(-1.,0.,0.));
#471=DIRECTION('ref_axis',(0.,1.,0.));
#472=DIRECTION('',(0.,0.,-1.));
#473=DIRECTION('',(0.,1.,0.));
#474=DIRECTION('center_axis',(0.,0.,-1.));
#475=DIRECTION('ref_axis',(0.70710678118655,-0.707106781186545,0.));
#476=DIRECTION('center_axis',(0.,0.,1.));
#477=DIRECTION('ref_axis',(0.70710678118655,-0.707106781186545,0.));
#478=DIRECTION('',(0.,0.,1.));
#479=DIRECTION('',(0.,0.,-1.));
#480=DIRECTION('center_axis',(1.,0.,0.));
#481=DIRECTION('ref_axis',(0.,1.,0.));
#482=DIRECTION('',(0.,-1.,0.));
#483=DIRECTION('',(0.,0.,-1.));
#484=DIRECTION('center_axis',(0.,0.,1.));
#485=DIRECTION('ref_axis',(1.,0.,0.));
#486=DIRECTION('',(-1.,0.,0.));
#487=DIRECTION('center_axis',(0.,0.,1.));
#488=DIRECTION('ref_axis',(-0.707106781186549,-0.707106781186546,0.));
#489=DIRECTION('',(0.,-1.,0.));
#490=DIRECTION('center_axis',(0.,0.,1.));
#491=DIRECTION('ref_axis',(-0.707106781186547,0.707106781186548,0.));
#492=DIRECTION('',(-1.,0.,0.));
#493=DIRECTION('center_axis',(0.,0.,1.));
#494=DIRECTION('ref_axis',(0.707106781186548,0.707106781186548,0.));
#495=DIRECTION('center_axis',(0.,0.,-1.));
#496=DIRECTION('ref_axis',(1.,0.,0.));
#497=DIRECTION('center_axis',(0.,0.,-1.));
#498=DIRECTION('ref_axis',(-1.,0.,0.));
#499=DIRECTION('center_axis',(0.,0.,-1.));
#500=DIRECTION('ref_axis',(-1.,0.,0.));
#501=DIRECTION('center_axis',(0.,0.,-1.));
#502=DIRECTION('ref_axis',(0.707106781186548,0.707106781186548,0.));
#503=DIRECTION('',(0.,0.,1.));
#504=DIRECTION('center_axis',(0.,1.,0.));
#505=DIRECTION('ref_axis',(0.,0.,1.));
#506=DIRECTION('',(0.,0.,-1.));
#507=DIRECTION('',(-1.,0.,0.));
#508=DIRECTION('center_axis',(0.,0.,1.));
#509=DIRECTION('ref_axis',(-0.707106781186549,-0.707106781186546,0.));
#510=DIRECTION('center_axis',(0.,0.,-1.));
#511=DIRECTION('ref_axis',(-0.707106781186549,-0.707106781186546,0.));
#512=DIRECTION('',(0.,0.,-1.));
#513=DIRECTION('',(0.,0.,1.));
#514=DIRECTION('center_axis',(0.,-1.,0.));
#515=DIRECTION('ref_axis',(0.,0.,-1.));
#516=DIRECTION('',(-1.,0.,0.));
#517=DIRECTION('center_axis',(0.,0.,-1.));
#518=DIRECTION('ref_axis',(-0.707106781186547,0.707106781186548,0.));
#519=DIRECTION('',(0.,0.,1.));
#520=DIRECTION('center_axis',(0.,0.,-1.));
#521=DIRECTION('ref_axis',(-0.707106781186547,0.707106781186548,0.));
#522=DIRECTION('center_axis',(-1.,0.,0.));
#523=DIRECTION('ref_axis',(0.,0.,1.));
#524=DIRECTION('',(0.,1.,0.));
#525=DIRECTION('center_axis',(0.,0.,1.));
#526=DIRECTION('ref_axis',(1.,0.,0.));
#527=DIRECTION('',(0.,0.,1.));
#528=DIRECTION('center_axis',(0.,0.,-1.));
#529=DIRECTION('ref_axis',(-1.,0.,0.));
#530=DIRECTION('center_axis',(0.,0.,-1.));
#531=DIRECTION('ref_axis',(-1.,0.,0.));
#532=DIRECTION('',(0.,0.,-1.));
#533=DIRECTION('center_axis',(0.,0.,-1.));
#534=DIRECTION('ref_axis',(-1.,0.,0.));
#535=DIRECTION('center_axis',(0.,0.,-1.));
#536=DIRECTION('ref_axis',(-1.,0.,0.));
#537=DIRECTION('',(0.,0.,-1.));
#538=DIRECTION('center_axis',(0.,0.,1.));
#539=DIRECTION('ref_axis',(1.,0.,0.));
#540=CARTESIAN_POINT('',(0.,0.,0.));
#541=CARTESIAN_POINT('Origin',(0.,0.,2.5));
#542=CARTESIAN_POINT('',(1.,1.22464679914735E-16,2.5));
#543=CARTESIAN_POINT('Origin',(0.,0.,2.5));
#544=CARTESIAN_POINT('',(1.,1.22464679914735E-16,0.));
#545=CARTESIAN_POINT('',(1.,-1.22464679914735E-16,2.5));
#546=CARTESIAN_POINT('Origin',(0.,0.,0.));
#547=CARTESIAN_POINT('Origin',(0.,0.,10.));
#548=CARTESIAN_POINT('',(-5.5,8.94427190999916,10.));
#549=CARTESIAN_POINT('',(-5.5,8.94427190999916,7.4));
#550=CARTESIAN_POINT('',(-5.5,8.94427190999916,10.));
#551=CARTESIAN_POINT('',(-5.5,-8.94427190999916,10.));
#552=CARTESIAN_POINT('Origin',(0.,0.,10.));
#553=CARTESIAN_POINT('',(-5.5,-8.94427190999916,7.4));
#554=CARTESIAN_POINT('',(-5.5,-8.94427190999916,10.));
#555=CARTESIAN_POINT('',(10.5,-1.28587913910472E-15,7.4));
#556=CARTESIAN_POINT('Origin',(0.,0.,7.4));
#557=CARTESIAN_POINT('',(10.5,1.28587913910472E-15,2.5));
#558=CARTESIAN_POINT('',(10.5,-1.28587913910472E-15,10.));
#559=CARTESIAN_POINT('Origin',(0.,0.,2.5));
#560=CARTESIAN_POINT('Origin',(0.,0.,7.4));
#561=CARTESIAN_POINT('Origin',(0.,0.,2.5));
#562=CARTESIAN_POINT('Origin',(0.,0.,7.4));
#563=CARTESIAN_POINT('',(-5.5,-17.5,7.4));
#564=CARTESIAN_POINT('',(-5.5,-15.,7.4));
#565=CARTESIAN_POINT('',(23.5,-17.5,7.4));
#566=CARTESIAN_POINT('',(5.5,-17.5,7.4));
#567=CARTESIAN_POINT('',(25.5,-15.5,7.4));
#568=CARTESIAN_POINT('Origin',(23.5,-15.5,7.4));
#569=CARTESIAN_POINT('',(25.5,15.5,7.4));
#570=CARTESIAN_POINT('',(25.5,-6.25,7.4));
#571=CARTESIAN_POINT('',(23.5,17.5,7.4));
#572=CARTESIAN_POINT('Origin',(23.5,15.5,7.4));
#573=CARTESIAN_POINT('',(-5.5,17.5,7.4));
#574=CARTESIAN_POINT('',(5.5,17.5,7.4));
#575=CARTESIAN_POINT('',(-5.5,-15.,7.4));
#576=CARTESIAN_POINT('',(12.9825,-3.08304831685346E-16,7.4));
#577=CARTESIAN_POINT('Origin',(15.5,0.,7.4));
#578=CARTESIAN_POINT('Origin',(-5.5,-12.5,10.));
#579=CARTESIAN_POINT('',(-5.5,-17.5,10.));
#580=CARTESIAN_POINT('',(-5.5,12.5,10.));
#581=CARTESIAN_POINT('',(-5.5,-17.5,1.5));
#582=CARTESIAN_POINT('Origin',(-5.5,-12.5,10.));
#583=CARTESIAN_POINT('',(-5.5,17.5,10.));
#584=CARTESIAN_POINT('',(-5.5,17.5,5.));
#585=CARTESIAN_POINT('',(-5.5,12.5,10.));
#586=CARTESIAN_POINT('Origin',(23.5,-15.5,0.));
#587=CARTESIAN_POINT('',(23.5,-17.5,0.));
#588=CARTESIAN_POINT('',(25.5,-15.5,0.));
#589=CARTESIAN_POINT('Origin',(23.5,-15.5,0.));
#590=CARTESIAN_POINT('',(25.5,-15.5,0.));
#591=CARTESIAN_POINT('',(23.5,-17.5,0.));
#592=CARTESIAN_POINT('Origin',(25.5,-12.5,0.));
#593=CARTESIAN_POINT('',(25.5,15.5,0.));
#594=CARTESIAN_POINT('',(25.5,12.5,0.));
#595=CARTESIAN_POINT('',(25.5,15.5,0.));
#596=CARTESIAN_POINT('Origin',(0.,0.,0.));
#597=CARTESIAN_POINT('',(-24.5,-17.5,0.));
#598=CARTESIAN_POINT('',(25.5,-17.5,0.));
#599=CARTESIAN_POINT('',(-26.5,-15.5,0.));
#600=CARTESIAN_POINT('Origin',(-24.5,-15.5,0.));
#601=CARTESIAN_POINT('',(-26.5,15.5,0.));
#602=CARTESIAN_POINT('',(-26.5,-12.5,0.));
#603=CARTESIAN_POINT('',(-24.5,17.5,0.));
#604=CARTESIAN_POINT('Origin',(-24.5,15.5,0.));
#605=CARTESIAN_POINT('',(23.5,17.5,0.));
#606=CARTESIAN_POINT('',(-25.5,17.5,0.));
#607=CARTESIAN_POINT('Origin',(23.5,15.5,0.));
#608=CARTESIAN_POINT('',(12.9825,3.08304831685346E-16,0.));
#609=CARTESIAN_POINT('Origin',(15.5,0.,0.));
#610=CARTESIAN_POINT('',(-13.4825,8.,0.));
#611=CARTESIAN_POINT('Origin',(-16.,8.,0.));
#612=CARTESIAN_POINT('',(-13.4825,-8.,0.));
#613=CARTESIAN_POINT('Origin',(-16.,-8.,0.));
#614=CARTESIAN_POINT('Origin',(23.5,15.5,0.));
#615=CARTESIAN_POINT('',(23.5,17.5,0.));
#616=CARTESIAN_POINT('Origin',(25.5,17.5,0.));
#617=CARTESIAN_POINT('',(-24.5,17.5,10.));
#618=CARTESIAN_POINT('',(-24.5,17.5,0.));
#619=CARTESIAN_POINT('',(-5.5,17.5,10.));
#620=CARTESIAN_POINT('Origin',(-24.5,-15.5,0.));
#621=CARTESIAN_POINT('',(-24.5,-17.5,10.));
#622=CARTESIAN_POINT('',(-26.5,-15.5,10.));
#623=CARTESIAN_POINT('Origin',(-24.5,-15.5,10.));
#624=CARTESIAN_POINT('',(-26.5,-15.5,0.));
#625=CARTESIAN_POINT('',(-24.5,-17.5,0.));
#626=CARTESIAN_POINT('Origin',(-25.5,-17.5,0.));
#627=CARTESIAN_POINT('',(25.5,-17.5,10.));
#628=CARTESIAN_POINT('Origin',(-24.5,15.5,0.));
#629=CARTESIAN_POINT('',(-26.5,15.5,10.));
#630=CARTESIAN_POINT('',(-26.5,15.5,0.));
#631=CARTESIAN_POINT('Origin',(-24.5,15.5,10.));
#632=CARTESIAN_POINT('Origin',(-26.5,12.5,0.));
#633=CARTESIAN_POINT('',(-26.5,12.5,10.));
#634=CARTESIAN_POINT('Origin',(15.5,0.,0.));
#635=CARTESIAN_POINT('',(12.9825,-3.08304831685346E-16,0.));
#636=CARTESIAN_POINT('Origin',(-16.,8.,10.));
#637=CARTESIAN_POINT('',(-13.4825,8.,10.));
#638=CARTESIAN_POINT('Origin',(-16.,8.,10.));
#639=CARTESIAN_POINT('',(-13.4825,8.,10.));
#640=CARTESIAN_POINT('Origin',(-16.,-8.,10.));
#641=CARTESIAN_POINT('',(-13.4825,-8.,10.));
#642=CARTESIAN_POINT('Origin',(-16.,-8.,10.));
#643=CARTESIAN_POINT('',(-13.4825,-8.,10.));
#644=CARTESIAN_POINT('Origin',(0.,0.,10.));
#645=UNCERTAINTY_MEASURE_WITH_UNIT(LENGTH_MEASURE(0.01),#649,
'DISTANCE_ACCURACY_VALUE',
'Maximum model space distance between geometric entities at asserted c
onnectivities');
#646=UNCERTAINTY_MEASURE_WITH_UNIT(LENGTH_MEASURE(0.01),#649,
'DISTANCE_ACCURACY_VALUE',
'Maximum model space distance between geometric entities at asserted c
onnectivities');
#647=(
GEOMETRIC_REPRESENTATION_CONTEXT(3)
GLOBAL_UNCERTAINTY_ASSIGNED_CONTEXT((#645))
GLOBAL_UNIT_ASSIGNED_CONTEXT((#649,#651,#652))
REPRESENTATION_CONTEXT('','3D')
);
#648=(
GEOMETRIC_REPRESENTATION_CONTEXT(3)
GLOBAL_UNCERTAINTY_ASSIGNED_CONTEXT((#646))
GLOBAL_UNIT_ASSIGNED_CONTEXT((#649,#651,#652))
REPRESENTATION_CONTEXT('','3D')
);
#649=(
LENGTH_UNIT()
NAMED_UNIT(*)
SI_UNIT(.MILLI.,.METRE.)
);
#650=(
LENGTH_UNIT()
NAMED_UNIT(*)
SI_UNIT($,.METRE.)
);
#651=(
NAMED_UNIT(*)
PLANE_ANGLE_UNIT()
SI_UNIT($,.RADIAN.)
);
#652=(
NAMED_UNIT(*)
SI_UNIT($,.STERADIAN.)
SOLID_ANGLE_UNIT()
);
#653=SHAPE_DEFINITION_REPRESENTATION(#654,#655);
#654=PRODUCT_DEFINITION_SHAPE('',$,#657);
#655=SHAPE_REPRESENTATION('',(#389),#647);
#656=PRODUCT_DEFINITION_CONTEXT('part definition',#661,'design');
#657=PRODUCT_DEFINITION('Terminal_Adapter_0s','Terminal_Adapter_0s v0',
#658,#656);
#658=PRODUCT_DEFINITION_FORMATION('',$,#663);
#659=PRODUCT_RELATED_PRODUCT_CATEGORY('Terminal_Adapter_0s v0',
'Terminal_Adapter_0s v0',(#663));
#660=APPLICATION_PROTOCOL_DEFINITION('international standard',
'automotive_design',2009,#661);
#661=APPLICATION_CONTEXT(
'Core Data for Automotive Mechanical Design Process');
#662=PRODUCT_CONTEXT('part definition',#661,'mechanical');
#663=PRODUCT('Terminal_Adapter_0s','Terminal_Adapter_0s v0',$,(#662));
#664=PRESENTATION_STYLE_ASSIGNMENT((#666));
#665=PRESENTATION_STYLE_ASSIGNMENT((#667));
#666=SURFACE_STYLE_USAGE(.BOTH.,#668);
#667=SURFACE_STYLE_USAGE(.BOTH.,#669);
#668=SURFACE_SIDE_STYLE('',(#670));
#669=SURFACE_SIDE_STYLE('',(#671));
#670=SURFACE_STYLE_FILL_AREA(#672);
#671=SURFACE_STYLE_FILL_AREA(#673);
#672=FILL_AREA_STYLE('Stahl - satiniert',(#674));
#673=FILL_AREA_STYLE('Aluminium - poliert',(#675));
#674=FILL_AREA_STYLE_COLOUR('Stahl - satiniert',#676);
#675=FILL_AREA_STYLE_COLOUR('Aluminium - poliert',#677);
#676=COLOUR_RGB('Stahl - satiniert',0.627450980392157,0.627450980392157,
0.627450980392157);
#677=COLOUR_RGB('Aluminium - poliert',0.96078431372549,0.96078431372549,
0.964705882352941);
ENDSEC;
END-ISO-10303-21;
