ISO-10303-21;
HEADER;
/* Generated by software containing ST-Developer
 * from STEP Tools, Inc. (www.steptools.com) 
 */

FILE_DESCRIPTION(
/* description */ (''),
/* implementation_level */ '2;1');

FILE_NAME(
/* name */ 'Terminal_Adapter_0s v3.step',
/* time_stamp */ '2023-06-05T11:22:07+02:00',
/* author */ (''),
/* organization */ (''),
/* preprocessor_version */ 'ST-DEVELOPER v19.2',
/* originating_system */ 'Autodesk Translation Framework v12.4.0.73',
/* authorisation */ '');

FILE_SCHEMA (('AUTOMOTIVE_DESIGN { 1 0 10303 214 3 1 1 }'));
ENDSEC;

DATA;
#10=MECHANICAL_DESIGN_GEOMETRIC_PRESENTATION_REPRESENTATION('',(#13),#648);
#11=SHAPE_REPRESENTATION_RELATIONSHIP('SRR','None',#655,#12);
#12=ADVANCED_BREP_SHAPE_REPRESENTATION('',(#14),#647);
#13=STYLED_ITEM('',(#665),#14);
#14=MANIFOLD_SOLID_BREP('K\X\F6rper1',#376);
#15=FACE_BOUND('',#57,.T.);
#16=FACE_BOUND('',#58,.T.);
#17=FACE_BOUND('',#64,.T.);
#18=FACE_BOUND('',#66,.T.);
#19=FACE_BOUND('',#72,.T.);
#20=FACE_BOUND('',#73,.T.);
#21=FACE_BOUND('',#74,.T.);
#22=FACE_BOUND('',#75,.T.);
#23=PLANE('',#399);
#24=PLANE('',#400);
#25=PLANE('',#405);
#26=PLANE('',#413);
#27=PLANE('',#414);
#28=PLANE('',#418);
#29=PLANE('',#419);
#30=PLANE('',#422);
#31=PLANE('',#423);
#32=PLANE('',#427);
#33=FACE_OUTER_BOUND('',#52,.T.);
#34=FACE_OUTER_BOUND('',#53,.T.);
#35=FACE_OUTER_BOUND('',#54,.T.);
#36=FACE_OUTER_BOUND('',#55,.T.);
#37=FACE_OUTER_BOUND('',#56,.T.);
#38=FACE_OUTER_BOUND('',#59,.T.);
#39=FACE_OUTER_BOUND('',#60,.T.);
#40=FACE_OUTER_BOUND('',#61,.T.);
#41=FACE_OUTER_BOUND('',#62,.T.);
#42=FACE_OUTER_BOUND('',#63,.T.);
#43=FACE_OUTER_BOUND('',#65,.T.);
#44=FACE_OUTER_BOUND('',#67,.T.);
#45=FACE_OUTER_BOUND('',#68,.T.);
#46=FACE_OUTER_BOUND('',#69,.T.);
#47=FACE_OUTER_BOUND('',#70,.T.);
#48=FACE_OUTER_BOUND('',#71,.T.);
#49=FACE_OUTER_BOUND('',#76,.T.);
#50=FACE_OUTER_BOUND('',#77,.T.);
#51=FACE_OUTER_BOUND('',#78,.T.);
#52=EDGE_LOOP('',(#246,#247,#248,#249));
#53=EDGE_LOOP('',(#250,#251,#252,#253));
#54=EDGE_LOOP('',(#254,#255,#256,#257));
#55=EDGE_LOOP('',(#258,#259,#260,#261));
#56=EDGE_LOOP('',(#262,#263,#264,#265,#266,#267,#268,#269));
#57=EDGE_LOOP('',(#270));
#58=EDGE_LOOP('',(#271));
#59=EDGE_LOOP('',(#272,#273,#274,#275));
#60=EDGE_LOOP('',(#276,#277,#278,#279,#280,#281));
#61=EDGE_LOOP('',(#282,#283,#284,#285,#286,#287,#288,#289));
#62=EDGE_LOOP('',(#290,#291,#292,#293));
#63=EDGE_LOOP('',(#294));
#64=EDGE_LOOP('',(#295));
#65=EDGE_LOOP('',(#296,#297,#298,#299,#300,#301,#302,#303,#304));
#66=EDGE_LOOP('',(#305));
#67=EDGE_LOOP('',(#306,#307,#308,#309));
#68=EDGE_LOOP('',(#310,#311,#312,#313));
#69=EDGE_LOOP('',(#314,#315,#316,#317));
#70=EDGE_LOOP('',(#318,#319,#320,#321));
#71=EDGE_LOOP('',(#322,#323,#324,#325,#326,#327,#328,#329));
#72=EDGE_LOOP('',(#330));
#73=EDGE_LOOP('',(#331));
#74=EDGE_LOOP('',(#332));
#75=EDGE_LOOP('',(#333));
#76=EDGE_LOOP('',(#334,#335,#336,#337));
#77=EDGE_LOOP('',(#338,#339,#340,#341,#342,#343));
#78=EDGE_LOOP('',(#344,#345,#346,#347));
#79=LINE('',#545,#110);
#80=LINE('',#551,#111);
#81=LINE('',#558,#112);
#82=LINE('',#561,#113);
#83=LINE('',#564,#114);
#84=LINE('',#566,#115);
#85=LINE('',#567,#116);
#86=LINE('',#570,#117);
#87=LINE('',#572,#118);
#88=LINE('',#576,#119);
#89=LINE('',#578,#120);
#90=LINE('',#583,#121);
#91=LINE('',#586,#122);
#92=LINE('',#588,#123);
#93=LINE('',#590,#124);
#94=LINE('',#591,#125);
#95=LINE('',#596,#126);
#96=LINE('',#598,#127);
#97=LINE('',#601,#128);
#98=LINE('',#607,#129);
#99=LINE('',#612,#130);
#100=LINE('',#614,#131);
#101=LINE('',#618,#132);
#102=LINE('',#620,#133);
#103=LINE('',#624,#134);
#104=LINE('',#630,#135);
#105=LINE('',#631,#136);
#106=LINE('',#634,#137);
#107=LINE('',#635,#138);
#108=LINE('',#638,#139);
#109=LINE('',#644,#140);
#110=VECTOR('',#435,2.5);
#111=VECTOR('',#442,2.5);
#112=VECTOR('',#449,10.);
#113=VECTOR('',#452,10.);
#114=VECTOR('',#455,10.);
#115=VECTOR('',#456,10.);
#116=VECTOR('',#457,10.);
#117=VECTOR('',#460,10.);
#118=VECTOR('',#461,10.);
#119=VECTOR('',#464,10.);
#120=VECTOR('',#465,10.);
#121=VECTOR('',#472,10.);
#122=VECTOR('',#475,10.);
#123=VECTOR('',#476,10.);
#124=VECTOR('',#477,10.);
#125=VECTOR('',#478,10.);
#126=VECTOR('',#483,10.);
#127=VECTOR('',#484,10.);
#128=VECTOR('',#487,10.5);
#129=VECTOR('',#494,4.);
#130=VECTOR('',#501,10.);
#131=VECTOR('',#502,10.);
#132=VECTOR('',#505,10.);
#133=VECTOR('',#508,10.);
#134=VECTOR('',#513,10.);
#135=VECTOR('',#520,10.);
#136=VECTOR('',#521,10.);
#137=VECTOR('',#524,10.);
#138=VECTOR('',#525,10.);
#139=VECTOR('',#530,10.);
#140=VECTOR('',#539,2.5);
#141=CIRCLE('',#391,2.5175);
#142=CIRCLE('',#392,2.5175);
#143=CIRCLE('',#394,2.5175);
#144=CIRCLE('',#395,2.5175);
#145=CIRCLE('',#397,2.);
#146=CIRCLE('',#398,2.);
#147=CIRCLE('',#401,10.5);
#148=CIRCLE('',#402,2.);
#149=CIRCLE('',#404,2.);
#150=CIRCLE('',#407,10.5);
#151=CIRCLE('',#408,10.5);
#152=CIRCLE('',#409,10.5);
#153=CIRCLE('',#411,4.);
#154=CIRCLE('',#412,4.);
#155=CIRCLE('',#415,2.);
#156=CIRCLE('',#416,2.);
#157=CIRCLE('',#417,2.5175);
#158=CIRCLE('',#421,2.);
#159=CIRCLE('',#424,2.);
#160=CIRCLE('',#425,2.5175);
#161=VERTEX_POINT('',#542);
#162=VERTEX_POINT('',#544);
#163=VERTEX_POINT('',#548);
#164=VERTEX_POINT('',#550);
#165=VERTEX_POINT('',#554);
#166=VERTEX_POINT('',#555);
#167=VERTEX_POINT('',#557);
#168=VERTEX_POINT('',#559);
#169=VERTEX_POINT('',#563);
#170=VERTEX_POINT('',#565);
#171=VERTEX_POINT('',#569);
#172=VERTEX_POINT('',#571);
#173=VERTEX_POINT('',#573);
#174=VERTEX_POINT('',#575);
#175=VERTEX_POINT('',#577);
#176=VERTEX_POINT('',#581);
#177=VERTEX_POINT('',#585);
#178=VERTEX_POINT('',#587);
#179=VERTEX_POINT('',#589);
#180=VERTEX_POINT('',#593);
#181=VERTEX_POINT('',#594);
#182=VERTEX_POINT('',#597);
#183=VERTEX_POINT('',#600);
#184=VERTEX_POINT('',#604);
#185=VERTEX_POINT('',#606);
#186=VERTEX_POINT('',#611);
#187=VERTEX_POINT('',#613);
#188=VERTEX_POINT('',#615);
#189=VERTEX_POINT('',#617);
#190=VERTEX_POINT('',#621);
#191=VERTEX_POINT('',#627);
#192=VERTEX_POINT('',#628);
#193=VERTEX_POINT('',#633);
#194=VERTEX_POINT('',#639);
#195=EDGE_CURVE('',#161,#161,#141,.T.);
#196=EDGE_CURVE('',#161,#162,#79,.T.);
#197=EDGE_CURVE('',#162,#162,#142,.F.);
#198=EDGE_CURVE('',#163,#163,#143,.T.);
#199=EDGE_CURVE('',#163,#164,#80,.T.);
#200=EDGE_CURVE('',#164,#164,#144,.F.);
#201=EDGE_CURVE('',#165,#166,#145,.T.);
#202=EDGE_CURVE('',#166,#167,#81,.T.);
#203=EDGE_CURVE('',#167,#168,#146,.T.);
#204=EDGE_CURVE('',#168,#165,#82,.T.);
#205=EDGE_CURVE('',#169,#168,#83,.T.);
#206=EDGE_CURVE('',#170,#169,#84,.T.);
#207=EDGE_CURVE('',#165,#170,#85,.T.);
#208=EDGE_CURVE('',#167,#171,#86,.T.);
#209=EDGE_CURVE('',#171,#172,#87,.T.);
#210=EDGE_CURVE('',#172,#173,#147,.T.);
#211=EDGE_CURVE('',#173,#174,#88,.T.);
#212=EDGE_CURVE('',#174,#175,#89,.T.);
#213=EDGE_CURVE('',#169,#175,#148,.T.);
#214=EDGE_CURVE('',#176,#170,#149,.T.);
#215=EDGE_CURVE('',#175,#176,#90,.T.);
#216=EDGE_CURVE('',#174,#177,#91,.T.);
#217=EDGE_CURVE('',#178,#177,#92,.T.);
#218=EDGE_CURVE('',#179,#178,#93,.T.);
#219=EDGE_CURVE('',#176,#179,#94,.T.);
#220=EDGE_CURVE('',#180,#181,#150,.T.);
#221=EDGE_CURVE('',#173,#180,#95,.T.);
#222=EDGE_CURVE('',#182,#172,#96,.T.);
#223=EDGE_CURVE('',#181,#182,#151,.T.);
#224=EDGE_CURVE('',#181,#183,#97,.T.);
#225=EDGE_CURVE('',#183,#183,#152,.T.);
#226=EDGE_CURVE('',#184,#184,#153,.T.);
#227=EDGE_CURVE('',#184,#185,#98,.T.);
#228=EDGE_CURVE('',#185,#185,#154,.T.);
#229=EDGE_CURVE('',#186,#182,#99,.T.);
#230=EDGE_CURVE('',#186,#187,#100,.T.);
#231=EDGE_CURVE('',#188,#187,#155,.T.);
#232=EDGE_CURVE('',#189,#188,#101,.T.);
#233=EDGE_CURVE('',#178,#189,#156,.T.);
#234=EDGE_CURVE('',#180,#177,#102,.T.);
#235=EDGE_CURVE('',#190,#190,#157,.F.);
#236=EDGE_CURVE('',#186,#171,#103,.T.);
#237=EDGE_CURVE('',#191,#192,#158,.T.);
#238=EDGE_CURVE('',#192,#188,#104,.T.);
#239=EDGE_CURVE('',#187,#191,#105,.T.);
#240=EDGE_CURVE('',#193,#192,#106,.T.);
#241=EDGE_CURVE('',#189,#193,#107,.T.);
#242=EDGE_CURVE('',#193,#179,#159,.T.);
#243=EDGE_CURVE('',#191,#166,#108,.T.);
#244=EDGE_CURVE('',#194,#194,#160,.F.);
#245=EDGE_CURVE('',#194,#190,#109,.T.);
#246=ORIENTED_EDGE('',*,*,#195,.F.);
#247=ORIENTED_EDGE('',*,*,#196,.T.);
#248=ORIENTED_EDGE('',*,*,#197,.F.);
#249=ORIENTED_EDGE('',*,*,#196,.F.);
#250=ORIENTED_EDGE('',*,*,#198,.F.);
#251=ORIENTED_EDGE('',*,*,#199,.T.);
#252=ORIENTED_EDGE('',*,*,#200,.F.);
#253=ORIENTED_EDGE('',*,*,#199,.F.);
#254=ORIENTED_EDGE('',*,*,#201,.T.);
#255=ORIENTED_EDGE('',*,*,#202,.T.);
#256=ORIENTED_EDGE('',*,*,#203,.T.);
#257=ORIENTED_EDGE('',*,*,#204,.T.);
#258=ORIENTED_EDGE('',*,*,#204,.F.);
#259=ORIENTED_EDGE('',*,*,#205,.F.);
#260=ORIENTED_EDGE('',*,*,#206,.F.);
#261=ORIENTED_EDGE('',*,*,#207,.F.);
#262=ORIENTED_EDGE('',*,*,#203,.F.);
#263=ORIENTED_EDGE('',*,*,#208,.T.);
#264=ORIENTED_EDGE('',*,*,#209,.T.);
#265=ORIENTED_EDGE('',*,*,#210,.T.);
#266=ORIENTED_EDGE('',*,*,#211,.T.);
#267=ORIENTED_EDGE('',*,*,#212,.T.);
#268=ORIENTED_EDGE('',*,*,#213,.F.);
#269=ORIENTED_EDGE('',*,*,#205,.T.);
#270=ORIENTED_EDGE('',*,*,#195,.T.);
#271=ORIENTED_EDGE('',*,*,#198,.T.);
#272=ORIENTED_EDGE('',*,*,#214,.T.);
#273=ORIENTED_EDGE('',*,*,#206,.T.);
#274=ORIENTED_EDGE('',*,*,#213,.T.);
#275=ORIENTED_EDGE('',*,*,#215,.T.);
#276=ORIENTED_EDGE('',*,*,#215,.F.);
#277=ORIENTED_EDGE('',*,*,#212,.F.);
#278=ORIENTED_EDGE('',*,*,#216,.T.);
#279=ORIENTED_EDGE('',*,*,#217,.F.);
#280=ORIENTED_EDGE('',*,*,#218,.F.);
#281=ORIENTED_EDGE('',*,*,#219,.F.);
#282=ORIENTED_EDGE('',*,*,#220,.F.);
#283=ORIENTED_EDGE('',*,*,#221,.F.);
#284=ORIENTED_EDGE('',*,*,#210,.F.);
#285=ORIENTED_EDGE('',*,*,#222,.F.);
#286=ORIENTED_EDGE('',*,*,#223,.F.);
#287=ORIENTED_EDGE('',*,*,#224,.T.);
#288=ORIENTED_EDGE('',*,*,#225,.T.);
#289=ORIENTED_EDGE('',*,*,#224,.F.);
#290=ORIENTED_EDGE('',*,*,#226,.F.);
#291=ORIENTED_EDGE('',*,*,#227,.T.);
#292=ORIENTED_EDGE('',*,*,#228,.F.);
#293=ORIENTED_EDGE('',*,*,#227,.F.);
#294=ORIENTED_EDGE('',*,*,#225,.F.);
#295=ORIENTED_EDGE('',*,*,#226,.T.);
#296=ORIENTED_EDGE('',*,*,#220,.T.);
#297=ORIENTED_EDGE('',*,*,#223,.T.);
#298=ORIENTED_EDGE('',*,*,#229,.F.);
#299=ORIENTED_EDGE('',*,*,#230,.T.);
#300=ORIENTED_EDGE('',*,*,#231,.F.);
#301=ORIENTED_EDGE('',*,*,#232,.F.);
#302=ORIENTED_EDGE('',*,*,#233,.F.);
#303=ORIENTED_EDGE('',*,*,#217,.T.);
#304=ORIENTED_EDGE('',*,*,#234,.F.);
#305=ORIENTED_EDGE('',*,*,#235,.T.);
#306=ORIENTED_EDGE('',*,*,#222,.T.);
#307=ORIENTED_EDGE('',*,*,#209,.F.);
#308=ORIENTED_EDGE('',*,*,#236,.F.);
#309=ORIENTED_EDGE('',*,*,#229,.T.);
#310=ORIENTED_EDGE('',*,*,#221,.T.);
#311=ORIENTED_EDGE('',*,*,#234,.T.);
#312=ORIENTED_EDGE('',*,*,#216,.F.);
#313=ORIENTED_EDGE('',*,*,#211,.F.);
#314=ORIENTED_EDGE('',*,*,#237,.T.);
#315=ORIENTED_EDGE('',*,*,#238,.T.);
#316=ORIENTED_EDGE('',*,*,#231,.T.);
#317=ORIENTED_EDGE('',*,*,#239,.T.);
#318=ORIENTED_EDGE('',*,*,#238,.F.);
#319=ORIENTED_EDGE('',*,*,#240,.F.);
#320=ORIENTED_EDGE('',*,*,#241,.F.);
#321=ORIENTED_EDGE('',*,*,#232,.T.);
#322=ORIENTED_EDGE('',*,*,#201,.F.);
#323=ORIENTED_EDGE('',*,*,#207,.T.);
#324=ORIENTED_EDGE('',*,*,#214,.F.);
#325=ORIENTED_EDGE('',*,*,#219,.T.);
#326=ORIENTED_EDGE('',*,*,#242,.F.);
#327=ORIENTED_EDGE('',*,*,#240,.T.);
#328=ORIENTED_EDGE('',*,*,#237,.F.);
#329=ORIENTED_EDGE('',*,*,#243,.T.);
#330=ORIENTED_EDGE('',*,*,#197,.T.);
#331=ORIENTED_EDGE('',*,*,#200,.T.);
#332=ORIENTED_EDGE('',*,*,#244,.T.);
#333=ORIENTED_EDGE('',*,*,#228,.T.);
#334=ORIENTED_EDGE('',*,*,#242,.T.);
#335=ORIENTED_EDGE('',*,*,#218,.T.);
#336=ORIENTED_EDGE('',*,*,#233,.T.);
#337=ORIENTED_EDGE('',*,*,#241,.T.);
#338=ORIENTED_EDGE('',*,*,#202,.F.);
#339=ORIENTED_EDGE('',*,*,#243,.F.);
#340=ORIENTED_EDGE('',*,*,#239,.F.);
#341=ORIENTED_EDGE('',*,*,#230,.F.);
#342=ORIENTED_EDGE('',*,*,#236,.T.);
#343=ORIENTED_EDGE('',*,*,#208,.F.);
#344=ORIENTED_EDGE('',*,*,#244,.F.);
#345=ORIENTED_EDGE('',*,*,#245,.T.);
#346=ORIENTED_EDGE('',*,*,#235,.F.);
#347=ORIENTED_EDGE('',*,*,#245,.F.);
#348=CYLINDRICAL_SURFACE('',#390,2.5175);
#349=CYLINDRICAL_SURFACE('',#393,2.5175);
#350=CYLINDRICAL_SURFACE('',#396,2.);
#351=CYLINDRICAL_SURFACE('',#403,2.);
#352=CYLINDRICAL_SURFACE('',#406,10.5);
#353=CYLINDRICAL_SURFACE('',#410,4.);
#354=CYLINDRICAL_SURFACE('',#420,2.);
#355=CYLINDRICAL_SURFACE('',#426,2.);
#356=CYLINDRICAL_SURFACE('',#428,2.5175);
#357=ADVANCED_FACE('',(#33),#348,.F.);
#358=ADVANCED_FACE('',(#34),#349,.F.);
#359=ADVANCED_FACE('',(#35),#350,.T.);
#360=ADVANCED_FACE('',(#36),#23,.T.);
#361=ADVANCED_FACE('',(#37,#15,#16),#24,.T.);
#362=ADVANCED_FACE('',(#38),#351,.T.);
#363=ADVANCED_FACE('',(#39),#25,.T.);
#364=ADVANCED_FACE('',(#40),#352,.F.);
#365=ADVANCED_FACE('',(#41),#353,.F.);
#366=ADVANCED_FACE('',(#42,#17),#26,.T.);
#367=ADVANCED_FACE('',(#43,#18),#27,.F.);
#368=ADVANCED_FACE('',(#44),#28,.F.);
#369=ADVANCED_FACE('',(#45),#29,.F.);
#370=ADVANCED_FACE('',(#46),#354,.T.);
#371=ADVANCED_FACE('',(#47),#30,.T.);
#372=ADVANCED_FACE('',(#48,#19,#20,#21,#22),#31,.F.);
#373=ADVANCED_FACE('',(#49),#355,.T.);
#374=ADVANCED_FACE('',(#50),#32,.T.);
#375=ADVANCED_FACE('',(#51),#356,.F.);
#376=CLOSED_SHELL('',(#357,#358,#359,#360,#361,#362,#363,#364,#365,#366,
#367,#368,#369,#370,#371,#372,#373,#374,#375));
#377=DERIVED_UNIT_ELEMENT(#379,1.);
#378=DERIVED_UNIT_ELEMENT(#650,-3.);
#379=(
MASS_UNIT()
NAMED_UNIT(*)
SI_UNIT(.KILO.,.GRAM.)
);
#380=DERIVED_UNIT((#377,#378));
#381=MEASURE_REPRESENTATION_ITEM('density measure',
POSITIVE_RATIO_MEASURE(7850.),#380);
#382=PROPERTY_DEFINITION_REPRESENTATION(#387,#384);
#383=PROPERTY_DEFINITION_REPRESENTATION(#388,#385);
#384=REPRESENTATION('material name',(#386),#647);
#385=REPRESENTATION('density',(#381),#647);
#386=DESCRIPTIVE_REPRESENTATION_ITEM('Stahl','Stahl');
#387=PROPERTY_DEFINITION('material property','material name',#657);
#388=PROPERTY_DEFINITION('material property','density of part',#657);
#389=AXIS2_PLACEMENT_3D('',#540,#429,#430);
#390=AXIS2_PLACEMENT_3D('',#541,#431,#432);
#391=AXIS2_PLACEMENT_3D('',#543,#433,#434);
#392=AXIS2_PLACEMENT_3D('',#546,#436,#437);
#393=AXIS2_PLACEMENT_3D('',#547,#438,#439);
#394=AXIS2_PLACEMENT_3D('',#549,#440,#441);
#395=AXIS2_PLACEMENT_3D('',#552,#443,#444);
#396=AXIS2_PLACEMENT_3D('',#553,#445,#446);
#397=AXIS2_PLACEMENT_3D('',#556,#447,#448);
#398=AXIS2_PLACEMENT_3D('',#560,#450,#451);
#399=AXIS2_PLACEMENT_3D('',#562,#453,#454);
#400=AXIS2_PLACEMENT_3D('',#568,#458,#459);
#401=AXIS2_PLACEMENT_3D('',#574,#462,#463);
#402=AXIS2_PLACEMENT_3D('',#579,#466,#467);
#403=AXIS2_PLACEMENT_3D('',#580,#468,#469);
#404=AXIS2_PLACEMENT_3D('',#582,#470,#471);
#405=AXIS2_PLACEMENT_3D('',#584,#473,#474);
#406=AXIS2_PLACEMENT_3D('',#592,#479,#480);
#407=AXIS2_PLACEMENT_3D('',#595,#481,#482);
#408=AXIS2_PLACEMENT_3D('',#599,#485,#486);
#409=AXIS2_PLACEMENT_3D('',#602,#488,#489);
#410=AXIS2_PLACEMENT_3D('',#603,#490,#491);
#411=AXIS2_PLACEMENT_3D('',#605,#492,#493);
#412=AXIS2_PLACEMENT_3D('',#608,#495,#496);
#413=AXIS2_PLACEMENT_3D('',#609,#497,#498);
#414=AXIS2_PLACEMENT_3D('',#610,#499,#500);
#415=AXIS2_PLACEMENT_3D('',#616,#503,#504);
#416=AXIS2_PLACEMENT_3D('',#619,#506,#507);
#417=AXIS2_PLACEMENT_3D('',#622,#509,#510);
#418=AXIS2_PLACEMENT_3D('',#623,#511,#512);
#419=AXIS2_PLACEMENT_3D('',#625,#514,#515);
#420=AXIS2_PLACEMENT_3D('',#626,#516,#517);
#421=AXIS2_PLACEMENT_3D('',#629,#518,#519);
#422=AXIS2_PLACEMENT_3D('',#632,#522,#523);
#423=AXIS2_PLACEMENT_3D('',#636,#526,#527);
#424=AXIS2_PLACEMENT_3D('',#637,#528,#529);
#425=AXIS2_PLACEMENT_3D('',#640,#531,#532);
#426=AXIS2_PLACEMENT_3D('',#641,#533,#534);
#427=AXIS2_PLACEMENT_3D('',#642,#535,#536);
#428=AXIS2_PLACEMENT_3D('',#643,#537,#538);
#429=DIRECTION('axis',(0.,0.,1.));
#430=DIRECTION('refdir',(1.,0.,0.));
#431=DIRECTION('center_axis',(0.,0.,-1.));
#432=DIRECTION('ref_axis',(-1.,0.,0.));
#433=DIRECTION('center_axis',(0.,0.,-1.));
#434=DIRECTION('ref_axis',(-1.,0.,0.));
#435=DIRECTION('',(0.,0.,-1.));
#436=DIRECTION('center_axis',(0.,0.,-1.));
#437=DIRECTION('ref_axis',(-1.,0.,0.));
#438=DIRECTION('center_axis',(0.,0.,-1.));
#439=DIRECTION('ref_axis',(-1.,0.,0.));
#440=DIRECTION('center_axis',(0.,0.,-1.));
#441=DIRECTION('ref_axis',(-1.,0.,0.));
#442=DIRECTION('',(0.,0.,-1.));
#443=DIRECTION('center_axis',(0.,0.,-1.));
#444=DIRECTION('ref_axis',(-1.,0.,0.));
#445=DIRECTION('center_axis',(0.,0.,-1.));
#446=DIRECTION('ref_axis',(-0.707106781186548,-0.707106781186547,0.));
#447=DIRECTION('center_axis',(0.,0.,1.));
#448=DIRECTION('ref_axis',(-0.707106781186548,-0.707106781186547,0.));
#449=DIRECTION('',(0.,0.,1.));
#450=DIRECTION('center_axis',(0.,0.,-1.));
#451=DIRECTION('ref_axis',(-0.707106781186548,-0.707106781186547,0.));
#452=DIRECTION('',(0.,0.,-1.));
#453=DIRECTION('center_axis',(-1.,0.,0.));
#454=DIRECTION('ref_axis',(0.,1.,0.));
#455=DIRECTION('',(0.,-1.,0.));
#456=DIRECTION('',(0.,0.,1.));
#457=DIRECTION('',(0.,1.,0.));
#458=DIRECTION('center_axis',(0.,0.,1.));
#459=DIRECTION('ref_axis',(1.,0.,0.));
#460=DIRECTION('',(1.,0.,0.));
#461=DIRECTION('',(0.,1.,0.));
#462=DIRECTION('center_axis',(0.,0.,-1.));
#463=DIRECTION('ref_axis',(-1.,0.,0.));
#464=DIRECTION('',(0.,1.,0.));
#465=DIRECTION('',(-1.,0.,0.));
#466=DIRECTION('center_axis',(0.,0.,-1.));
#467=DIRECTION('ref_axis',(-0.707106781186548,0.707106781186547,0.));
#468=DIRECTION('center_axis',(0.,0.,-1.));
#469=DIRECTION('ref_axis',(-0.707106781186548,0.707106781186547,0.));
#470=DIRECTION('center_axis',(0.,0.,1.));
#471=DIRECTION('ref_axis',(-0.707106781186548,0.707106781186547,0.));
#472=DIRECTION('',(0.,0.,-1.));
#473=DIRECTION('center_axis',(0.,1.,0.));
#474=DIRECTION('ref_axis',(0.,0.,1.));
#475=DIRECTION('',(0.,0.,-1.));
#476=DIRECTION('',(-1.,0.,0.));
#477=DIRECTION('',(0.,0.,1.));
#478=DIRECTION('',(1.,0.,0.));
#479=DIRECTION('center_axis',(0.,0.,-1.));
#480=DIRECTION('ref_axis',(-1.,0.,0.));
#481=DIRECTION('center_axis',(0.,0.,-1.));
#482=DIRECTION('ref_axis',(-1.,0.,0.));
#483=DIRECTION('',(0.,0.,-1.));
#484=DIRECTION('',(0.,0.,1.));
#485=DIRECTION('center_axis',(0.,0.,-1.));
#486=DIRECTION('ref_axis',(-1.,0.,0.));
#487=DIRECTION('',(0.,0.,-1.));
#488=DIRECTION('center_axis',(0.,0.,-1.));
#489=DIRECTION('ref_axis',(-1.,0.,0.));
#490=DIRECTION('center_axis',(0.,0.,-1.));
#491=DIRECTION('ref_axis',(-1.,0.,0.));
#492=DIRECTION('center_axis',(0.,0.,-1.));
#493=DIRECTION('ref_axis',(-1.,0.,0.));
#494=DIRECTION('',(0.,0.,-1.));
#495=DIRECTION('center_axis',(0.,0.,1.));
#496=DIRECTION('ref_axis',(-1.,0.,0.));
#497=DIRECTION('center_axis',(0.,0.,1.));
#498=DIRECTION('ref_axis',(-1.,0.,0.));
#499=DIRECTION('center_axis',(0.,0.,-1.));
#500=DIRECTION('ref_axis',(-1.,0.,0.));
#501=DIRECTION('',(0.,1.,0.));
#502=DIRECTION('',(1.,0.,0.));
#503=DIRECTION('center_axis',(0.,0.,-1.));
#504=DIRECTION('ref_axis',(0.70710678118655,-0.707106781186545,0.));
#505=DIRECTION('',(0.,-1.,0.));
#506=DIRECTION('center_axis',(0.,0.,-1.));
#507=DIRECTION('ref_axis',(0.707106781186548,0.707106781186548,0.));
#508=DIRECTION('',(0.,1.,0.));
#509=DIRECTION('center_axis',(0.,0.,1.));
#510=DIRECTION('ref_axis',(1.,0.,0.));
#511=DIRECTION('center_axis',(-1.,0.,0.));
#512=DIRECTION('ref_axis',(0.,1.,0.));
#513=DIRECTION('',(0.,0.,1.));
#514=DIRECTION('center_axis',(-1.,0.,0.));
#515=DIRECTION('ref_axis',(0.,1.,0.));
#516=DIRECTION('center_axis',(0.,0.,-1.));
#517=DIRECTION('ref_axis',(0.70710678118655,-0.707106781186545,0.));
#518=DIRECTION('center_axis',(0.,0.,1.));
#519=DIRECTION('ref_axis',(0.70710678118655,-0.707106781186545,0.));
#520=DIRECTION('',(0.,0.,1.));
#521=DIRECTION('',(0.,0.,-1.));
#522=DIRECTION('center_axis',(1.,0.,0.));
#523=DIRECTION('ref_axis',(0.,1.,0.));
#524=DIRECTION('',(0.,-1.,0.));
#525=DIRECTION('',(0.,0.,-1.));
#526=DIRECTION('center_axis',(0.,0.,1.));
#527=DIRECTION('ref_axis',(1.,0.,0.));
#528=DIRECTION('center_axis',(0.,0.,1.));
#529=DIRECTION('ref_axis',(0.707106781186548,0.707106781186548,0.));
#530=DIRECTION('',(-1.,0.,0.));
#531=DIRECTION('center_axis',(0.,0.,-1.));
#532=DIRECTION('ref_axis',(1.,0.,0.));
#533=DIRECTION('center_axis',(0.,0.,-1.));
#534=DIRECTION('ref_axis',(0.707106781186548,0.707106781186548,0.));
#535=DIRECTION('center_axis',(0.,-1.,0.));
#536=DIRECTION('ref_axis',(0.,0.,-1.));
#537=DIRECTION('center_axis',(0.,0.,1.));
#538=DIRECTION('ref_axis',(1.,0.,0.));
#539=DIRECTION('',(0.,0.,1.));
#540=CARTESIAN_POINT('',(0.,0.,0.));
#541=CARTESIAN_POINT('Origin',(-15.5,8.,10.));
#542=CARTESIAN_POINT('',(-12.9825,8.,10.));
#543=CARTESIAN_POINT('Origin',(-15.5,8.,10.));
#544=CARTESIAN_POINT('',(-12.9825,8.,0.));
#545=CARTESIAN_POINT('',(-12.9825,8.,10.));
#546=CARTESIAN_POINT('Origin',(-15.5,8.,0.));
#547=CARTESIAN_POINT('Origin',(-15.5,-8.,10.));
#548=CARTESIAN_POINT('',(-12.9825,-8.,10.));
#549=CARTESIAN_POINT('Origin',(-15.5,-8.,10.));
#550=CARTESIAN_POINT('',(-12.9825,-8.,0.));
#551=CARTESIAN_POINT('',(-12.9825,-8.,10.));
#552=CARTESIAN_POINT('Origin',(-15.5,-8.,0.));
#553=CARTESIAN_POINT('Origin',(-23.5,-15.5,5.));
#554=CARTESIAN_POINT('',(-25.5,-15.5,0.));
#555=CARTESIAN_POINT('',(-23.5,-17.5,0.));
#556=CARTESIAN_POINT('Origin',(-23.5,-15.5,0.));
#557=CARTESIAN_POINT('',(-23.5,-17.5,10.));
#558=CARTESIAN_POINT('',(-23.5,-17.5,5.));
#559=CARTESIAN_POINT('',(-25.5,-15.5,10.));
#560=CARTESIAN_POINT('Origin',(-23.5,-15.5,10.));
#561=CARTESIAN_POINT('',(-25.5,-15.5,5.));
#562=CARTESIAN_POINT('Origin',(-25.5,-17.5,10.));
#563=CARTESIAN_POINT('',(-25.5,15.5,10.));
#564=CARTESIAN_POINT('',(-25.5,8.61602540378444,10.));
#565=CARTESIAN_POINT('',(-25.5,15.5,0.));
#566=CARTESIAN_POINT('',(-25.5,15.5,5.));
#567=CARTESIAN_POINT('',(-25.5,8.61602540378444,0.));
#568=CARTESIAN_POINT('Origin',(0.,0.,10.));
#569=CARTESIAN_POINT('',(-5.5,-17.5,10.));
#570=CARTESIAN_POINT('',(-25.5,-17.5,10.));
#571=CARTESIAN_POINT('',(-5.5,-8.94427190999916,10.));
#572=CARTESIAN_POINT('',(-5.5,12.5,10.));
#573=CARTESIAN_POINT('',(-5.5,8.94427190999916,10.));
#574=CARTESIAN_POINT('Origin',(0.,0.,10.));
#575=CARTESIAN_POINT('',(-5.5,17.5,10.));
#576=CARTESIAN_POINT('',(-5.5,12.5,10.));
#577=CARTESIAN_POINT('',(-23.5,17.5,10.));
#578=CARTESIAN_POINT('',(-5.5,17.5,10.));
#579=CARTESIAN_POINT('Origin',(-23.5,15.5,10.));
#580=CARTESIAN_POINT('Origin',(-23.5,15.5,5.));
#581=CARTESIAN_POINT('',(-23.5,17.5,0.));
#582=CARTESIAN_POINT('Origin',(-23.5,15.5,0.));
#583=CARTESIAN_POINT('',(-23.5,17.5,5.));
#584=CARTESIAN_POINT('Origin',(25.5,17.5,0.));
#585=CARTESIAN_POINT('',(-5.5,17.5,7.4));
#586=CARTESIAN_POINT('',(-5.5,17.5,5.));
#587=CARTESIAN_POINT('',(23.5,17.5,7.4));
#588=CARTESIAN_POINT('',(5.5,17.5,7.4));
#589=CARTESIAN_POINT('',(23.5,17.5,0.));
#590=CARTESIAN_POINT('',(23.5,17.5,0.));
#591=CARTESIAN_POINT('',(-5.5,17.5,0.));
#592=CARTESIAN_POINT('Origin',(0.,0.,10.));
#593=CARTESIAN_POINT('',(-5.5,8.94427190999916,7.4));
#594=CARTESIAN_POINT('',(10.5,-1.28587913910472E-15,7.4));
#595=CARTESIAN_POINT('Origin',(0.,0.,7.4));
#596=CARTESIAN_POINT('',(-5.5,8.94427190999916,10.));
#597=CARTESIAN_POINT('',(-5.5,-8.94427190999916,7.4));
#598=CARTESIAN_POINT('',(-5.5,-8.94427190999916,10.));
#599=CARTESIAN_POINT('Origin',(0.,0.,7.4));
#600=CARTESIAN_POINT('',(10.5,-1.28587913910472E-15,2.5));
#601=CARTESIAN_POINT('',(10.5,-1.28587913910472E-15,10.));
#602=CARTESIAN_POINT('Origin',(0.,0.,2.5));
#603=CARTESIAN_POINT('Origin',(0.,0.,2.5));
#604=CARTESIAN_POINT('',(4.,4.89858719658941E-16,2.5));
#605=CARTESIAN_POINT('Origin',(0.,0.,2.5));
#606=CARTESIAN_POINT('',(4.,4.89858719658941E-16,0.));
#607=CARTESIAN_POINT('',(4.,-4.89858719658941E-16,2.5));
#608=CARTESIAN_POINT('Origin',(0.,0.,0.));
#609=CARTESIAN_POINT('Origin',(0.,0.,2.5));
#610=CARTESIAN_POINT('Origin',(0.,0.,7.4));
#611=CARTESIAN_POINT('',(-5.5,-17.5,7.4));
#612=CARTESIAN_POINT('',(-5.5,-15.,7.4));
#613=CARTESIAN_POINT('',(23.5,-17.5,7.4));
#614=CARTESIAN_POINT('',(5.5,-17.5,7.4));
#615=CARTESIAN_POINT('',(25.5,-15.5,7.4));
#616=CARTESIAN_POINT('Origin',(23.5,-15.5,7.4));
#617=CARTESIAN_POINT('',(25.5,15.5,7.4));
#618=CARTESIAN_POINT('',(25.5,-6.25,7.4));
#619=CARTESIAN_POINT('Origin',(23.5,15.5,7.4));
#620=CARTESIAN_POINT('',(-5.5,-15.,7.4));
#621=CARTESIAN_POINT('',(12.9825,-3.08304831685346E-16,7.4));
#622=CARTESIAN_POINT('Origin',(15.5,0.,7.4));
#623=CARTESIAN_POINT('Origin',(-5.5,-12.5,10.));
#624=CARTESIAN_POINT('',(-5.5,-17.5,1.5));
#625=CARTESIAN_POINT('Origin',(-5.5,-12.5,10.));
#626=CARTESIAN_POINT('Origin',(23.5,-15.5,0.));
#627=CARTESIAN_POINT('',(23.5,-17.5,0.));
#628=CARTESIAN_POINT('',(25.5,-15.5,0.));
#629=CARTESIAN_POINT('Origin',(23.5,-15.5,0.));
#630=CARTESIAN_POINT('',(25.5,-15.5,0.));
#631=CARTESIAN_POINT('',(23.5,-17.5,0.));
#632=CARTESIAN_POINT('Origin',(25.5,-12.5,0.));
#633=CARTESIAN_POINT('',(25.5,15.5,0.));
#634=CARTESIAN_POINT('',(25.5,12.5,0.));
#635=CARTESIAN_POINT('',(25.5,15.5,0.));
#636=CARTESIAN_POINT('Origin',(0.,0.,0.));
#637=CARTESIAN_POINT('Origin',(23.5,15.5,0.));
#638=CARTESIAN_POINT('',(-25.5,-17.5,0.));
#639=CARTESIAN_POINT('',(12.9825,3.08304831685346E-16,0.));
#640=CARTESIAN_POINT('Origin',(15.5,0.,0.));
#641=CARTESIAN_POINT('Origin',(23.5,15.5,0.));
#642=CARTESIAN_POINT('Origin',(-25.5,-17.5,0.));
#643=CARTESIAN_POINT('Origin',(15.5,0.,0.));
#644=CARTESIAN_POINT('',(12.9825,-3.08304831685346E-16,0.));
#645=UNCERTAINTY_MEASURE_WITH_UNIT(LENGTH_MEASURE(0.01),#649,
'DISTANCE_ACCURACY_VALUE',
'Maximum model space distance between geometric entities at asserted c
onnectivities');
#646=UNCERTAINTY_MEASURE_WITH_UNIT(LENGTH_MEASURE(0.01),#649,
'DISTANCE_ACCURACY_VALUE',
'Maximum model space distance between geometric entities at asserted c
onnectivities');
#647=(
GEOMETRIC_REPRESENTATION_CONTEXT(3)
GLOBAL_UNCERTAINTY_ASSIGNED_CONTEXT((#645))
GLOBAL_UNIT_ASSIGNED_CONTEXT((#649,#651,#652))
REPRESENTATION_CONTEXT('','3D')
);
#648=(
GEOMETRIC_REPRESENTATION_CONTEXT(3)
GLOBAL_UNCERTAINTY_ASSIGNED_CONTEXT((#646))
GLOBAL_UNIT_ASSIGNED_CONTEXT((#649,#651,#652))
REPRESENTATION_CONTEXT('','3D')
);
#649=(
LENGTH_UNIT()
NAMED_UNIT(*)
SI_UNIT(.MILLI.,.METRE.)
);
#650=(
LENGTH_UNIT()
NAMED_UNIT(*)
SI_UNIT($,.METRE.)
);
#651=(
NAMED_UNIT(*)
PLANE_ANGLE_UNIT()
SI_UNIT($,.RADIAN.)
);
#652=(
NAMED_UNIT(*)
SI_UNIT($,.STERADIAN.)
SOLID_ANGLE_UNIT()
);
#653=SHAPE_DEFINITION_REPRESENTATION(#654,#655);
#654=PRODUCT_DEFINITION_SHAPE('',$,#657);
#655=SHAPE_REPRESENTATION('',(#389),#647);
#656=PRODUCT_DEFINITION_CONTEXT('part definition',#661,'design');
#657=PRODUCT_DEFINITION('Terminal_Adapter_0s','Terminal_Adapter_0s v3',
#658,#656);
#658=PRODUCT_DEFINITION_FORMATION('',$,#663);
#659=PRODUCT_RELATED_PRODUCT_CATEGORY('Terminal_Adapter_0s v3',
'Terminal_Adapter_0s v3',(#663));
#660=APPLICATION_PROTOCOL_DEFINITION('international standard',
'automotive_design',2009,#661);
#661=APPLICATION_CONTEXT(
'Core Data for Automotive Mechanical Design Process');
#662=PRODUCT_CONTEXT('part definition',#661,'mechanical');
#663=PRODUCT('Terminal_Adapter_0s','Terminal_Adapter_0s v3',$,(#662));
#664=PRESENTATION_STYLE_ASSIGNMENT((#666));
#665=PRESENTATION_STYLE_ASSIGNMENT((#667));
#666=SURFACE_STYLE_USAGE(.BOTH.,#668);
#667=SURFACE_STYLE_USAGE(.BOTH.,#669);
#668=SURFACE_SIDE_STYLE('',(#670));
#669=SURFACE_SIDE_STYLE('',(#671));
#670=SURFACE_STYLE_FILL_AREA(#672);
#671=SURFACE_STYLE_FILL_AREA(#673);
#672=FILL_AREA_STYLE('Stahl - satiniert',(#674));
#673=FILL_AREA_STYLE('Aluminium - poliert',(#675));
#674=FILL_AREA_STYLE_COLOUR('Stahl - satiniert',#676);
#675=FILL_AREA_STYLE_COLOUR('Aluminium - poliert',#677);
#676=COLOUR_RGB('Stahl - satiniert',0.627450980392157,0.627450980392157,
0.627450980392157);
#677=COLOUR_RGB('Aluminium - poliert',0.96078431372549,0.96078431372549,
0.964705882352941);
ENDSEC;
END-ISO-10303-21;
