ISO-10303-21;
HEADER;
/* Generated by software containing ST-Developer
 * from STEP Tools, Inc. (www.steptools.com) 
 */

FILE_DESCRIPTION(
/* description */ (''),
/* implementation_level */ '2;1');

FILE_NAME(
/* name */ 
'D:/Projekte/ecs_greenPowerPack/greenPowerPack320_200/LiMax160L_2-Reih
ig_8 Cell/Seite_LiMax160L_2-Reihig_8 Cell.step',
/* time_stamp */ '2021-10-13T14:06:35+02:00',
/* author */ (''),
/* organization */ (''),
/* preprocessor_version */ 'ST-DEVELOPER v18.1',
/* originating_system */ 'Autodesk Translation Framework v10.10.0.1391',

/* authorisation */ '');

FILE_SCHEMA (('AUTOMOTIVE_DESIGN { 1 0 10303 214 3 1 1 }'));
ENDSEC;

DATA;
#10=MECHANICAL_DESIGN_GEOMETRIC_PRESENTATION_REPRESENTATION('',(#13),#417);
#11=SHAPE_REPRESENTATION_RELATIONSHIP('SRR','None',#424,#12);
#12=ADVANCED_BREP_SHAPE_REPRESENTATION('',(#14),#416);
#13=STYLED_ITEM('',(#434),#14);
#14=MANIFOLD_SOLID_BREP('K\X\F6rper1',#245);
#15=CYLINDRICAL_SURFACE('',#277,4.25000000000001);
#16=CYLINDRICAL_SURFACE('',#278,4.25000000000001);
#17=CYLINDRICAL_SURFACE('',#279,4.25000000000001);
#18=CYLINDRICAL_SURFACE('',#280,4.25000000000001);
#19=CYLINDRICAL_SURFACE('',#281,4.25);
#20=CYLINDRICAL_SURFACE('',#282,4.25);
#21=FACE_BOUND('',#59,.T.);
#22=FACE_BOUND('',#60,.T.);
#23=FACE_BOUND('',#61,.T.);
#24=FACE_BOUND('',#62,.T.);
#25=FACE_BOUND('',#63,.T.);
#26=FACE_BOUND('',#64,.T.);
#27=FACE_BOUND('',#69,.T.);
#28=FACE_BOUND('',#70,.T.);
#29=FACE_BOUND('',#71,.T.);
#30=FACE_BOUND('',#72,.T.);
#31=FACE_BOUND('',#73,.T.);
#32=FACE_BOUND('',#74,.T.);
#33=CIRCLE('',#261,4.25000000000001);
#34=CIRCLE('',#262,4.25000000000001);
#35=CIRCLE('',#263,4.25000000000001);
#36=CIRCLE('',#264,4.25000000000001);
#37=CIRCLE('',#265,4.25);
#38=CIRCLE('',#266,4.25);
#39=CIRCLE('',#271,4.25);
#40=CIRCLE('',#272,4.25);
#41=CIRCLE('',#273,4.25000000000001);
#42=CIRCLE('',#274,4.25000000000001);
#43=CIRCLE('',#275,4.25000000000001);
#44=CIRCLE('',#276,4.25000000000001);
#45=FACE_OUTER_BOUND('',#57,.T.);
#46=FACE_OUTER_BOUND('',#58,.T.);
#47=FACE_OUTER_BOUND('',#65,.T.);
#48=FACE_OUTER_BOUND('',#66,.T.);
#49=FACE_OUTER_BOUND('',#67,.T.);
#50=FACE_OUTER_BOUND('',#68,.T.);
#51=FACE_OUTER_BOUND('',#75,.T.);
#52=FACE_OUTER_BOUND('',#76,.T.);
#53=FACE_OUTER_BOUND('',#77,.T.);
#54=FACE_OUTER_BOUND('',#78,.T.);
#55=FACE_OUTER_BOUND('',#79,.T.);
#56=FACE_OUTER_BOUND('',#80,.T.);
#57=EDGE_LOOP('',(#167,#168,#169,#170));
#58=EDGE_LOOP('',(#171,#172,#173,#174));
#59=EDGE_LOOP('',(#175));
#60=EDGE_LOOP('',(#176));
#61=EDGE_LOOP('',(#177));
#62=EDGE_LOOP('',(#178));
#63=EDGE_LOOP('',(#179));
#64=EDGE_LOOP('',(#180));
#65=EDGE_LOOP('',(#181,#182,#183,#184));
#66=EDGE_LOOP('',(#185,#186,#187,#188));
#67=EDGE_LOOP('',(#189,#190,#191,#192));
#68=EDGE_LOOP('',(#193,#194,#195,#196));
#69=EDGE_LOOP('',(#197));
#70=EDGE_LOOP('',(#198));
#71=EDGE_LOOP('',(#199));
#72=EDGE_LOOP('',(#200));
#73=EDGE_LOOP('',(#201));
#74=EDGE_LOOP('',(#202));
#75=EDGE_LOOP('',(#203,#204,#205,#206));
#76=EDGE_LOOP('',(#207,#208,#209,#210));
#77=EDGE_LOOP('',(#211,#212,#213,#214));
#78=EDGE_LOOP('',(#215,#216,#217,#218));
#79=EDGE_LOOP('',(#219,#220,#221,#222));
#80=EDGE_LOOP('',(#223,#224,#225,#226));
#81=LINE('',#355,#99);
#82=LINE('',#357,#100);
#83=LINE('',#359,#101);
#84=LINE('',#360,#102);
#85=LINE('',#363,#103);
#86=LINE('',#365,#104);
#87=LINE('',#366,#105);
#88=LINE('',#381,#106);
#89=LINE('',#382,#107);
#90=LINE('',#385,#108);
#91=LINE('',#386,#109);
#92=LINE('',#388,#110);
#93=LINE('',#403,#111);
#94=LINE('',#405,#112);
#95=LINE('',#407,#113);
#96=LINE('',#409,#114);
#97=LINE('',#411,#115);
#98=LINE('',#413,#116);
#99=VECTOR('',#287,10.);
#100=VECTOR('',#288,10.);
#101=VECTOR('',#289,10.);
#102=VECTOR('',#290,10.);
#103=VECTOR('',#293,10.);
#104=VECTOR('',#294,10.);
#105=VECTOR('',#295,10.);
#106=VECTOR('',#310,10.);
#107=VECTOR('',#311,10.);
#108=VECTOR('',#314,10.);
#109=VECTOR('',#315,10.);
#110=VECTOR('',#318,10.);
#111=VECTOR('',#335,4.25000000000001);
#112=VECTOR('',#338,4.25000000000001);
#113=VECTOR('',#341,4.25000000000001);
#114=VECTOR('',#344,4.25000000000001);
#115=VECTOR('',#347,4.25);
#116=VECTOR('',#350,4.25);
#117=VERTEX_POINT('',#353);
#118=VERTEX_POINT('',#354);
#119=VERTEX_POINT('',#356);
#120=VERTEX_POINT('',#358);
#121=VERTEX_POINT('',#362);
#122=VERTEX_POINT('',#364);
#123=VERTEX_POINT('',#367);
#124=VERTEX_POINT('',#369);
#125=VERTEX_POINT('',#371);
#126=VERTEX_POINT('',#373);
#127=VERTEX_POINT('',#375);
#128=VERTEX_POINT('',#377);
#129=VERTEX_POINT('',#380);
#130=VERTEX_POINT('',#384);
#131=VERTEX_POINT('',#390);
#132=VERTEX_POINT('',#392);
#133=VERTEX_POINT('',#394);
#134=VERTEX_POINT('',#396);
#135=VERTEX_POINT('',#398);
#136=VERTEX_POINT('',#400);
#137=EDGE_CURVE('',#117,#118,#81,.T.);
#138=EDGE_CURVE('',#119,#117,#82,.T.);
#139=EDGE_CURVE('',#120,#119,#83,.T.);
#140=EDGE_CURVE('',#118,#120,#84,.T.);
#141=EDGE_CURVE('',#117,#121,#85,.T.);
#142=EDGE_CURVE('',#121,#122,#86,.T.);
#143=EDGE_CURVE('',#122,#119,#87,.T.);
#144=EDGE_CURVE('',#123,#123,#33,.T.);
#145=EDGE_CURVE('',#124,#124,#34,.T.);
#146=EDGE_CURVE('',#125,#125,#35,.T.);
#147=EDGE_CURVE('',#126,#126,#36,.T.);
#148=EDGE_CURVE('',#127,#127,#37,.T.);
#149=EDGE_CURVE('',#128,#128,#38,.T.);
#150=EDGE_CURVE('',#129,#118,#88,.T.);
#151=EDGE_CURVE('',#121,#129,#89,.T.);
#152=EDGE_CURVE('',#130,#129,#90,.T.);
#153=EDGE_CURVE('',#130,#122,#91,.T.);
#154=EDGE_CURVE('',#120,#130,#92,.T.);
#155=EDGE_CURVE('',#131,#131,#39,.T.);
#156=EDGE_CURVE('',#132,#132,#40,.T.);
#157=EDGE_CURVE('',#133,#133,#41,.T.);
#158=EDGE_CURVE('',#134,#134,#42,.T.);
#159=EDGE_CURVE('',#135,#135,#43,.T.);
#160=EDGE_CURVE('',#136,#136,#44,.T.);
#161=EDGE_CURVE('',#136,#123,#93,.T.);
#162=EDGE_CURVE('',#135,#124,#94,.T.);
#163=EDGE_CURVE('',#134,#125,#95,.T.);
#164=EDGE_CURVE('',#133,#126,#96,.T.);
#165=EDGE_CURVE('',#132,#127,#97,.T.);
#166=EDGE_CURVE('',#131,#128,#98,.T.);
#167=ORIENTED_EDGE('',*,*,#137,.F.);
#168=ORIENTED_EDGE('',*,*,#138,.F.);
#169=ORIENTED_EDGE('',*,*,#139,.F.);
#170=ORIENTED_EDGE('',*,*,#140,.F.);
#171=ORIENTED_EDGE('',*,*,#138,.T.);
#172=ORIENTED_EDGE('',*,*,#141,.T.);
#173=ORIENTED_EDGE('',*,*,#142,.T.);
#174=ORIENTED_EDGE('',*,*,#143,.T.);
#175=ORIENTED_EDGE('',*,*,#144,.T.);
#176=ORIENTED_EDGE('',*,*,#145,.T.);
#177=ORIENTED_EDGE('',*,*,#146,.T.);
#178=ORIENTED_EDGE('',*,*,#147,.T.);
#179=ORIENTED_EDGE('',*,*,#148,.T.);
#180=ORIENTED_EDGE('',*,*,#149,.T.);
#181=ORIENTED_EDGE('',*,*,#137,.T.);
#182=ORIENTED_EDGE('',*,*,#150,.F.);
#183=ORIENTED_EDGE('',*,*,#151,.F.);
#184=ORIENTED_EDGE('',*,*,#141,.F.);
#185=ORIENTED_EDGE('',*,*,#151,.T.);
#186=ORIENTED_EDGE('',*,*,#152,.F.);
#187=ORIENTED_EDGE('',*,*,#153,.T.);
#188=ORIENTED_EDGE('',*,*,#142,.F.);
#189=ORIENTED_EDGE('',*,*,#139,.T.);
#190=ORIENTED_EDGE('',*,*,#143,.F.);
#191=ORIENTED_EDGE('',*,*,#153,.F.);
#192=ORIENTED_EDGE('',*,*,#154,.F.);
#193=ORIENTED_EDGE('',*,*,#140,.T.);
#194=ORIENTED_EDGE('',*,*,#154,.T.);
#195=ORIENTED_EDGE('',*,*,#152,.T.);
#196=ORIENTED_EDGE('',*,*,#150,.T.);
#197=ORIENTED_EDGE('',*,*,#155,.T.);
#198=ORIENTED_EDGE('',*,*,#156,.T.);
#199=ORIENTED_EDGE('',*,*,#157,.T.);
#200=ORIENTED_EDGE('',*,*,#158,.T.);
#201=ORIENTED_EDGE('',*,*,#159,.T.);
#202=ORIENTED_EDGE('',*,*,#160,.T.);
#203=ORIENTED_EDGE('',*,*,#160,.F.);
#204=ORIENTED_EDGE('',*,*,#161,.T.);
#205=ORIENTED_EDGE('',*,*,#144,.F.);
#206=ORIENTED_EDGE('',*,*,#161,.F.);
#207=ORIENTED_EDGE('',*,*,#159,.F.);
#208=ORIENTED_EDGE('',*,*,#162,.T.);
#209=ORIENTED_EDGE('',*,*,#145,.F.);
#210=ORIENTED_EDGE('',*,*,#162,.F.);
#211=ORIENTED_EDGE('',*,*,#158,.F.);
#212=ORIENTED_EDGE('',*,*,#163,.T.);
#213=ORIENTED_EDGE('',*,*,#146,.F.);
#214=ORIENTED_EDGE('',*,*,#163,.F.);
#215=ORIENTED_EDGE('',*,*,#157,.F.);
#216=ORIENTED_EDGE('',*,*,#164,.T.);
#217=ORIENTED_EDGE('',*,*,#147,.F.);
#218=ORIENTED_EDGE('',*,*,#164,.F.);
#219=ORIENTED_EDGE('',*,*,#156,.F.);
#220=ORIENTED_EDGE('',*,*,#165,.T.);
#221=ORIENTED_EDGE('',*,*,#148,.F.);
#222=ORIENTED_EDGE('',*,*,#165,.F.);
#223=ORIENTED_EDGE('',*,*,#155,.F.);
#224=ORIENTED_EDGE('',*,*,#166,.T.);
#225=ORIENTED_EDGE('',*,*,#149,.F.);
#226=ORIENTED_EDGE('',*,*,#166,.F.);
#227=PLANE('',#259);
#228=PLANE('',#260);
#229=PLANE('',#267);
#230=PLANE('',#268);
#231=PLANE('',#269);
#232=PLANE('',#270);
#233=ADVANCED_FACE('',(#45),#227,.F.);
#234=ADVANCED_FACE('',(#46,#21,#22,#23,#24,#25,#26),#228,.F.);
#235=ADVANCED_FACE('',(#47),#229,.F.);
#236=ADVANCED_FACE('',(#48),#230,.T.);
#237=ADVANCED_FACE('',(#49),#231,.F.);
#238=ADVANCED_FACE('',(#50,#27,#28,#29,#30,#31,#32),#232,.T.);
#239=ADVANCED_FACE('',(#51),#15,.F.);
#240=ADVANCED_FACE('',(#52),#16,.F.);
#241=ADVANCED_FACE('',(#53),#17,.F.);
#242=ADVANCED_FACE('',(#54),#18,.F.);
#243=ADVANCED_FACE('',(#55),#19,.F.);
#244=ADVANCED_FACE('',(#56),#20,.F.);
#245=CLOSED_SHELL('',(#233,#234,#235,#236,#237,#238,#239,#240,#241,#242,
#243,#244));
#246=DERIVED_UNIT_ELEMENT(#248,1.);
#247=DERIVED_UNIT_ELEMENT(#419,-3.);
#248=(
MASS_UNIT()
NAMED_UNIT(*)
SI_UNIT(.KILO.,.GRAM.)
);
#249=DERIVED_UNIT((#246,#247));
#250=MEASURE_REPRESENTATION_ITEM('density measure',
POSITIVE_RATIO_MEASURE(7850.),#249);
#251=PROPERTY_DEFINITION_REPRESENTATION(#256,#253);
#252=PROPERTY_DEFINITION_REPRESENTATION(#257,#254);
#253=REPRESENTATION('material name',(#255),#416);
#254=REPRESENTATION('density',(#250),#416);
#255=DESCRIPTIVE_REPRESENTATION_ITEM('Stahl','Stahl');
#256=PROPERTY_DEFINITION('material property','material name',#426);
#257=PROPERTY_DEFINITION('material property','density of part',#426);
#258=AXIS2_PLACEMENT_3D('placement',#351,#283,#284);
#259=AXIS2_PLACEMENT_3D('',#352,#285,#286);
#260=AXIS2_PLACEMENT_3D('',#361,#291,#292);
#261=AXIS2_PLACEMENT_3D('',#368,#296,#297);
#262=AXIS2_PLACEMENT_3D('',#370,#298,#299);
#263=AXIS2_PLACEMENT_3D('',#372,#300,#301);
#264=AXIS2_PLACEMENT_3D('',#374,#302,#303);
#265=AXIS2_PLACEMENT_3D('',#376,#304,#305);
#266=AXIS2_PLACEMENT_3D('',#378,#306,#307);
#267=AXIS2_PLACEMENT_3D('',#379,#308,#309);
#268=AXIS2_PLACEMENT_3D('',#383,#312,#313);
#269=AXIS2_PLACEMENT_3D('',#387,#316,#317);
#270=AXIS2_PLACEMENT_3D('',#389,#319,#320);
#271=AXIS2_PLACEMENT_3D('',#391,#321,#322);
#272=AXIS2_PLACEMENT_3D('',#393,#323,#324);
#273=AXIS2_PLACEMENT_3D('',#395,#325,#326);
#274=AXIS2_PLACEMENT_3D('',#397,#327,#328);
#275=AXIS2_PLACEMENT_3D('',#399,#329,#330);
#276=AXIS2_PLACEMENT_3D('',#401,#331,#332);
#277=AXIS2_PLACEMENT_3D('',#402,#333,#334);
#278=AXIS2_PLACEMENT_3D('',#404,#336,#337);
#279=AXIS2_PLACEMENT_3D('',#406,#339,#340);
#280=AXIS2_PLACEMENT_3D('',#408,#342,#343);
#281=AXIS2_PLACEMENT_3D('',#410,#345,#346);
#282=AXIS2_PLACEMENT_3D('',#412,#348,#349);
#283=DIRECTION('axis',(0.,0.,1.));
#284=DIRECTION('refdir',(1.,0.,0.));
#285=DIRECTION('center_axis',(0.,1.,0.));
#286=DIRECTION('ref_axis',(0.,0.,1.));
#287=DIRECTION('',(0.,0.,1.));
#288=DIRECTION('',(-1.,0.,0.));
#289=DIRECTION('',(0.,0.,-1.));
#290=DIRECTION('',(1.,0.,0.));
#291=DIRECTION('center_axis',(0.,0.,1.));
#292=DIRECTION('ref_axis',(1.,0.,0.));
#293=DIRECTION('',(0.,1.,0.));
#294=DIRECTION('',(1.,0.,0.));
#295=DIRECTION('',(0.,-1.,0.));
#296=DIRECTION('center_axis',(0.,0.,1.));
#297=DIRECTION('ref_axis',(-1.,0.,0.));
#298=DIRECTION('center_axis',(0.,0.,1.));
#299=DIRECTION('ref_axis',(-1.,0.,0.));
#300=DIRECTION('center_axis',(0.,0.,1.));
#301=DIRECTION('ref_axis',(-1.,0.,0.));
#302=DIRECTION('center_axis',(0.,0.,1.));
#303=DIRECTION('ref_axis',(-1.,0.,0.));
#304=DIRECTION('center_axis',(0.,0.,1.));
#305=DIRECTION('ref_axis',(-1.,0.,0.));
#306=DIRECTION('center_axis',(0.,0.,1.));
#307=DIRECTION('ref_axis',(-1.,0.,0.));
#308=DIRECTION('center_axis',(1.,0.,0.));
#309=DIRECTION('ref_axis',(0.,0.,-1.));
#310=DIRECTION('',(0.,-1.,0.));
#311=DIRECTION('',(0.,0.,1.));
#312=DIRECTION('center_axis',(0.,1.,0.));
#313=DIRECTION('ref_axis',(-1.,0.,0.));
#314=DIRECTION('',(-1.,0.,0.));
#315=DIRECTION('',(0.,0.,-1.));
#316=DIRECTION('center_axis',(-1.,0.,0.));
#317=DIRECTION('ref_axis',(0.,0.,1.));
#318=DIRECTION('',(0.,1.,0.));
#319=DIRECTION('center_axis',(0.,0.,1.));
#320=DIRECTION('ref_axis',(1.,0.,0.));
#321=DIRECTION('center_axis',(0.,0.,-1.));
#322=DIRECTION('ref_axis',(-1.,0.,0.));
#323=DIRECTION('center_axis',(0.,0.,-1.));
#324=DIRECTION('ref_axis',(-1.,0.,0.));
#325=DIRECTION('center_axis',(0.,0.,-1.));
#326=DIRECTION('ref_axis',(-1.,0.,0.));
#327=DIRECTION('center_axis',(0.,0.,-1.));
#328=DIRECTION('ref_axis',(-1.,0.,0.));
#329=DIRECTION('center_axis',(0.,0.,-1.));
#330=DIRECTION('ref_axis',(-1.,0.,0.));
#331=DIRECTION('center_axis',(0.,0.,-1.));
#332=DIRECTION('ref_axis',(-1.,0.,0.));
#333=DIRECTION('center_axis',(0.,0.,-1.));
#334=DIRECTION('ref_axis',(-1.,0.,0.));
#335=DIRECTION('',(0.,0.,-1.));
#336=DIRECTION('center_axis',(0.,0.,-1.));
#337=DIRECTION('ref_axis',(-1.,0.,0.));
#338=DIRECTION('',(0.,0.,-1.));
#339=DIRECTION('center_axis',(0.,0.,-1.));
#340=DIRECTION('ref_axis',(-1.,0.,0.));
#341=DIRECTION('',(0.,0.,-1.));
#342=DIRECTION('center_axis',(0.,0.,-1.));
#343=DIRECTION('ref_axis',(-1.,0.,0.));
#344=DIRECTION('',(0.,0.,-1.));
#345=DIRECTION('center_axis',(0.,0.,-1.));
#346=DIRECTION('ref_axis',(-1.,0.,0.));
#347=DIRECTION('',(0.,0.,-1.));
#348=DIRECTION('center_axis',(0.,0.,-1.));
#349=DIRECTION('ref_axis',(-1.,0.,0.));
#350=DIRECTION('',(0.,0.,-1.));
#351=CARTESIAN_POINT('',(0.,0.,0.));
#352=CARTESIAN_POINT('Origin',(-310.,-61.5,0.));
#353=CARTESIAN_POINT('',(-305.,-61.5,0.));
#354=CARTESIAN_POINT('',(-305.,-61.5,3.));
#355=CARTESIAN_POINT('',(-305.,-61.5,0.));
#356=CARTESIAN_POINT('',(305.,-61.5,0.));
#357=CARTESIAN_POINT('',(-155.,-61.5,0.));
#358=CARTESIAN_POINT('',(305.,-61.5,3.));
#359=CARTESIAN_POINT('',(305.,-61.5,0.));
#360=CARTESIAN_POINT('',(-155.,-61.5,3.));
#361=CARTESIAN_POINT('Origin',(0.,-8.88178419700125E-15,0.));
#362=CARTESIAN_POINT('',(-305.,62.5,0.));
#363=CARTESIAN_POINT('',(-305.,31.25,0.));
#364=CARTESIAN_POINT('',(305.,62.5,0.));
#365=CARTESIAN_POINT('',(-310.,62.5,0.));
#366=CARTESIAN_POINT('',(305.,-31.25,0.));
#367=CARTESIAN_POINT('',(296.75,14.5,0.));
#368=CARTESIAN_POINT('Origin',(292.5,14.5,0.));
#369=CARTESIAN_POINT('',(-288.25,-50.5,0.));
#370=CARTESIAN_POINT('Origin',(-292.5,-50.5,0.));
#371=CARTESIAN_POINT('',(296.75,-50.5,0.));
#372=CARTESIAN_POINT('Origin',(292.5,-50.5,0.));
#373=CARTESIAN_POINT('',(-288.25,14.5,0.));
#374=CARTESIAN_POINT('Origin',(-292.5,14.5,0.));
#375=CARTESIAN_POINT('',(4.25,52.5,0.));
#376=CARTESIAN_POINT('Origin',(-3.00834626027462E-16,52.5,0.));
#377=CARTESIAN_POINT('',(4.25,-50.5,0.));
#378=CARTESIAN_POINT('Origin',(-3.00834626027462E-16,-50.5,0.));
#379=CARTESIAN_POINT('Origin',(-305.,62.5,0.));
#380=CARTESIAN_POINT('',(-305.,62.5,3.));
#381=CARTESIAN_POINT('',(-305.,31.25,3.));
#382=CARTESIAN_POINT('',(-305.,62.5,0.));
#383=CARTESIAN_POINT('Origin',(310.,62.5,0.));
#384=CARTESIAN_POINT('',(305.,62.5,3.));
#385=CARTESIAN_POINT('',(-310.,62.5,3.));
#386=CARTESIAN_POINT('',(305.,62.5,0.));
#387=CARTESIAN_POINT('Origin',(305.,-62.5,0.));
#388=CARTESIAN_POINT('',(305.,-31.25,3.));
#389=CARTESIAN_POINT('Origin',(0.,-8.88178419700125E-15,3.));
#390=CARTESIAN_POINT('',(4.25,-50.5,3.));
#391=CARTESIAN_POINT('Origin',(-3.00834626027462E-16,-50.5,3.));
#392=CARTESIAN_POINT('',(4.25,52.5,3.));
#393=CARTESIAN_POINT('Origin',(-3.00834626027462E-16,52.5,3.));
#394=CARTESIAN_POINT('',(-288.25,14.5,3.));
#395=CARTESIAN_POINT('Origin',(-292.5,14.5,3.));
#396=CARTESIAN_POINT('',(296.75,-50.5,3.));
#397=CARTESIAN_POINT('Origin',(292.5,-50.5,3.));
#398=CARTESIAN_POINT('',(-288.25,-50.5,3.));
#399=CARTESIAN_POINT('Origin',(-292.5,-50.5,3.));
#400=CARTESIAN_POINT('',(296.75,14.5,3.));
#401=CARTESIAN_POINT('Origin',(292.5,14.5,3.));
#402=CARTESIAN_POINT('Origin',(292.5,14.5,3.));
#403=CARTESIAN_POINT('',(296.75,14.5,3.));
#404=CARTESIAN_POINT('Origin',(-292.5,-50.5,3.));
#405=CARTESIAN_POINT('',(-288.25,-50.5,3.));
#406=CARTESIAN_POINT('Origin',(292.5,-50.5,3.));
#407=CARTESIAN_POINT('',(296.75,-50.5,3.));
#408=CARTESIAN_POINT('Origin',(-292.5,14.5,3.));
#409=CARTESIAN_POINT('',(-288.25,14.5,3.));
#410=CARTESIAN_POINT('Origin',(-3.00834626027462E-16,52.5,3.));
#411=CARTESIAN_POINT('',(4.25,52.5,3.));
#412=CARTESIAN_POINT('Origin',(-3.00834626027462E-16,-50.5,3.));
#413=CARTESIAN_POINT('',(4.25,-50.5,3.));
#414=UNCERTAINTY_MEASURE_WITH_UNIT(LENGTH_MEASURE(0.01),#418,
'DISTANCE_ACCURACY_VALUE',
'Maximum model space distance between geometric entities at asserted c
onnectivities');
#415=UNCERTAINTY_MEASURE_WITH_UNIT(LENGTH_MEASURE(0.01),#418,
'DISTANCE_ACCURACY_VALUE',
'Maximum model space distance between geometric entities at asserted c
onnectivities');
#416=(
GEOMETRIC_REPRESENTATION_CONTEXT(3)
GLOBAL_UNCERTAINTY_ASSIGNED_CONTEXT((#414))
GLOBAL_UNIT_ASSIGNED_CONTEXT((#418,#420,#421))
REPRESENTATION_CONTEXT('','3D')
);
#417=(
GEOMETRIC_REPRESENTATION_CONTEXT(3)
GLOBAL_UNCERTAINTY_ASSIGNED_CONTEXT((#415))
GLOBAL_UNIT_ASSIGNED_CONTEXT((#418,#420,#421))
REPRESENTATION_CONTEXT('','3D')
);
#418=(
LENGTH_UNIT()
NAMED_UNIT(*)
SI_UNIT(.MILLI.,.METRE.)
);
#419=(
LENGTH_UNIT()
NAMED_UNIT(*)
SI_UNIT($,.METRE.)
);
#420=(
NAMED_UNIT(*)
PLANE_ANGLE_UNIT()
SI_UNIT($,.RADIAN.)
);
#421=(
NAMED_UNIT(*)
SI_UNIT($,.STERADIAN.)
SOLID_ANGLE_UNIT()
);
#422=SHAPE_DEFINITION_REPRESENTATION(#423,#424);
#423=PRODUCT_DEFINITION_SHAPE('',$,#426);
#424=SHAPE_REPRESENTATION('',(#258),#416);
#425=PRODUCT_DEFINITION_CONTEXT('part definition',#430,'design');
#426=PRODUCT_DEFINITION('Seite_LiMax160L_2-Reihig_8 Cell',
'Seite_LiMax160L_2-Reihig_8 Cell v8',#427,#425);
#427=PRODUCT_DEFINITION_FORMATION('',$,#432);
#428=PRODUCT_RELATED_PRODUCT_CATEGORY(
'Seite_LiMax160L_2-Reihig_8 Cell v8',
'Seite_LiMax160L_2-Reihig_8 Cell v8',(#432));
#429=APPLICATION_PROTOCOL_DEFINITION('international standard',
'automotive_design',2009,#430);
#430=APPLICATION_CONTEXT(
'Core Data for Automotive Mechanical Design Process');
#431=PRODUCT_CONTEXT('part definition',#430,'mechanical');
#432=PRODUCT('Seite_LiMax160L_2-Reihig_8 Cell',
'Seite_LiMax160L_2-Reihig_8 Cell v8',$,(#431));
#433=PRESENTATION_STYLE_ASSIGNMENT((#435));
#434=PRESENTATION_STYLE_ASSIGNMENT((#436));
#435=SURFACE_STYLE_USAGE(.BOTH.,#437);
#436=SURFACE_STYLE_USAGE(.BOTH.,#438);
#437=SURFACE_SIDE_STYLE('',(#439));
#438=SURFACE_SIDE_STYLE('',(#440));
#439=SURFACE_STYLE_FILL_AREA(#441);
#440=SURFACE_STYLE_FILL_AREA(#442);
#441=FILL_AREA_STYLE('Stahl - satiniert',(#443));
#442=FILL_AREA_STYLE('Polykarbonat (klar)',(#444));
#443=FILL_AREA_STYLE_COLOUR('Stahl - satiniert',#445);
#444=FILL_AREA_STYLE_COLOUR('Polykarbonat (klar)',#446);
#445=COLOUR_RGB('Stahl - satiniert',0.627450980392157,0.627450980392157,
0.627450980392157);
#446=COLOUR_RGB('Polykarbonat (klar)',0.964705882352941,0.964705882352941,
0.952941176470588);
ENDSEC;
END-ISO-10303-21;
