ISO-10303-21;
HEADER;
/* Generated by software containing ST-Developer
 * from STEP Tools, Inc. (www.steptools.com) 
 */

FILE_DESCRIPTION(
/* description */ (''),
/* implementation_level */ '2;1');

FILE_NAME(
/* name */ 
'D:/Projekte/ecs_greenPowerPack/greenPowerPack320_200/LiMax160L_2-Reih
ig_8 Cell/Federplatte_LiMax160L_2-Reihig_8 Cell.step',
/* time_stamp */ '2021-10-13T09:16:21+02:00',
/* author */ (''),
/* organization */ (''),
/* preprocessor_version */ 'ST-DEVELOPER v18.1',
/* originating_system */ 'Autodesk Translation Framework v10.10.0.1391',

/* authorisation */ '');

FILE_SCHEMA (('AUTOMOTIVE_DESIGN { 1 0 10303 214 3 1 1 }'));
ENDSEC;

DATA;
#10=MECHANICAL_DESIGN_GEOMETRIC_PRESENTATION_REPRESENTATION('',(#13),#549);
#11=SHAPE_REPRESENTATION_RELATIONSHIP('SRR','None',#556,#12);
#12=ADVANCED_BREP_SHAPE_REPRESENTATION('',(#14),#548);
#13=STYLED_ITEM('',(#566),#14);
#14=MANIFOLD_SOLID_BREP('K\X\F6rper1',#329);
#15=CYLINDRICAL_SURFACE('',#354,4.25000000000001);
#16=CYLINDRICAL_SURFACE('',#356,4.24999999999997);
#17=CYLINDRICAL_SURFACE('',#358,4.25000000000001);
#18=CYLINDRICAL_SURFACE('',#360,4.25000000000001);
#19=CYLINDRICAL_SURFACE('',#362,4.24999999999997);
#20=CYLINDRICAL_SURFACE('',#364,4.25000000000001);
#21=FACE_BOUND('',#64,.T.);
#22=FACE_BOUND('',#65,.T.);
#23=FACE_BOUND('',#66,.T.);
#24=FACE_BOUND('',#67,.T.);
#25=FACE_BOUND('',#68,.T.);
#26=FACE_BOUND('',#69,.T.);
#27=FACE_BOUND('',#82,.T.);
#28=FACE_BOUND('',#83,.T.);
#29=FACE_BOUND('',#84,.T.);
#30=FACE_BOUND('',#85,.T.);
#31=FACE_BOUND('',#86,.T.);
#32=FACE_BOUND('',#87,.T.);
#33=CIRCLE('',#346,4.25000000000001);
#34=CIRCLE('',#347,4.24999999999997);
#35=CIRCLE('',#348,4.25000000000001);
#36=CIRCLE('',#349,4.25000000000001);
#37=CIRCLE('',#350,4.24999999999997);
#38=CIRCLE('',#351,4.25000000000001);
#39=CIRCLE('',#355,4.25000000000001);
#40=CIRCLE('',#357,4.24999999999997);
#41=CIRCLE('',#359,4.25000000000001);
#42=CIRCLE('',#361,4.25000000000001);
#43=CIRCLE('',#363,4.24999999999997);
#44=CIRCLE('',#365,4.25000000000001);
#45=FACE_OUTER_BOUND('',#61,.T.);
#46=FACE_OUTER_BOUND('',#62,.T.);
#47=FACE_OUTER_BOUND('',#63,.T.);
#48=FACE_OUTER_BOUND('',#70,.T.);
#49=FACE_OUTER_BOUND('',#71,.T.);
#50=FACE_OUTER_BOUND('',#72,.T.);
#51=FACE_OUTER_BOUND('',#73,.T.);
#52=FACE_OUTER_BOUND('',#74,.T.);
#53=FACE_OUTER_BOUND('',#75,.T.);
#54=FACE_OUTER_BOUND('',#76,.T.);
#55=FACE_OUTER_BOUND('',#77,.T.);
#56=FACE_OUTER_BOUND('',#78,.T.);
#57=FACE_OUTER_BOUND('',#79,.T.);
#58=FACE_OUTER_BOUND('',#80,.T.);
#59=FACE_OUTER_BOUND('',#81,.T.);
#60=FACE_OUTER_BOUND('',#88,.T.);
#61=EDGE_LOOP('',(#219,#220,#221,#222));
#62=EDGE_LOOP('',(#223,#224,#225,#226));
#63=EDGE_LOOP('',(#227,#228,#229,#230,#231,#232,#233,#234));
#64=EDGE_LOOP('',(#235));
#65=EDGE_LOOP('',(#236));
#66=EDGE_LOOP('',(#237));
#67=EDGE_LOOP('',(#238));
#68=EDGE_LOOP('',(#239));
#69=EDGE_LOOP('',(#240));
#70=EDGE_LOOP('',(#241,#242,#243,#244));
#71=EDGE_LOOP('',(#245,#246,#247,#248));
#72=EDGE_LOOP('',(#249,#250,#251,#252));
#73=EDGE_LOOP('',(#253,#254,#255,#256));
#74=EDGE_LOOP('',(#257,#258,#259,#260));
#75=EDGE_LOOP('',(#261,#262,#263,#264));
#76=EDGE_LOOP('',(#265,#266,#267,#268));
#77=EDGE_LOOP('',(#269,#270,#271,#272));
#78=EDGE_LOOP('',(#273,#274,#275,#276));
#79=EDGE_LOOP('',(#277,#278,#279,#280));
#80=EDGE_LOOP('',(#281,#282,#283,#284));
#81=EDGE_LOOP('',(#285,#286,#287,#288,#289,#290,#291,#292));
#82=EDGE_LOOP('',(#293));
#83=EDGE_LOOP('',(#294));
#84=EDGE_LOOP('',(#295));
#85=EDGE_LOOP('',(#296));
#86=EDGE_LOOP('',(#297));
#87=EDGE_LOOP('',(#298));
#88=EDGE_LOOP('',(#299,#300,#301,#302));
#89=LINE('',#463,#119);
#90=LINE('',#465,#120);
#91=LINE('',#467,#121);
#92=LINE('',#468,#122);
#93=LINE('',#471,#123);
#94=LINE('',#473,#124);
#95=LINE('',#474,#125);
#96=LINE('',#477,#126);
#97=LINE('',#479,#127);
#98=LINE('',#481,#128);
#99=LINE('',#483,#129);
#100=LINE('',#485,#130);
#101=LINE('',#486,#131);
#102=LINE('',#501,#132);
#103=LINE('',#503,#133);
#104=LINE('',#504,#134);
#105=LINE('',#506,#135);
#106=LINE('',#509,#136);
#107=LINE('',#513,#137);
#108=LINE('',#517,#138);
#109=LINE('',#521,#139);
#110=LINE('',#525,#140);
#111=LINE('',#529,#141);
#112=LINE('',#533,#142);
#113=LINE('',#534,#143);
#114=LINE('',#537,#144);
#115=LINE('',#538,#145);
#116=LINE('',#541,#146);
#117=LINE('',#542,#147);
#118=LINE('',#544,#148);
#119=VECTOR('',#375,10.);
#120=VECTOR('',#376,10.);
#121=VECTOR('',#377,10.);
#122=VECTOR('',#378,10.);
#123=VECTOR('',#381,10.);
#124=VECTOR('',#382,10.);
#125=VECTOR('',#383,10.);
#126=VECTOR('',#386,10.);
#127=VECTOR('',#387,10.);
#128=VECTOR('',#388,10.);
#129=VECTOR('',#389,10.);
#130=VECTOR('',#390,10.);
#131=VECTOR('',#391,10.);
#132=VECTOR('',#406,10.);
#133=VECTOR('',#407,10.);
#134=VECTOR('',#408,10.);
#135=VECTOR('',#411,10.);
#136=VECTOR('',#414,4.25000000000001);
#137=VECTOR('',#419,4.24999999999997);
#138=VECTOR('',#424,4.25000000000001);
#139=VECTOR('',#429,4.25000000000001);
#140=VECTOR('',#434,4.24999999999997);
#141=VECTOR('',#439,4.25000000000001);
#142=VECTOR('',#444,10.);
#143=VECTOR('',#445,10.);
#144=VECTOR('',#448,10.);
#145=VECTOR('',#449,10.);
#146=VECTOR('',#452,10.);
#147=VECTOR('',#453,10.);
#148=VECTOR('',#456,10.);
#149=VERTEX_POINT('',#461);
#150=VERTEX_POINT('',#462);
#151=VERTEX_POINT('',#464);
#152=VERTEX_POINT('',#466);
#153=VERTEX_POINT('',#470);
#154=VERTEX_POINT('',#472);
#155=VERTEX_POINT('',#476);
#156=VERTEX_POINT('',#478);
#157=VERTEX_POINT('',#480);
#158=VERTEX_POINT('',#482);
#159=VERTEX_POINT('',#484);
#160=VERTEX_POINT('',#487);
#161=VERTEX_POINT('',#489);
#162=VERTEX_POINT('',#491);
#163=VERTEX_POINT('',#493);
#164=VERTEX_POINT('',#495);
#165=VERTEX_POINT('',#497);
#166=VERTEX_POINT('',#500);
#167=VERTEX_POINT('',#502);
#168=VERTEX_POINT('',#508);
#169=VERTEX_POINT('',#512);
#170=VERTEX_POINT('',#516);
#171=VERTEX_POINT('',#520);
#172=VERTEX_POINT('',#524);
#173=VERTEX_POINT('',#528);
#174=VERTEX_POINT('',#532);
#175=VERTEX_POINT('',#536);
#176=VERTEX_POINT('',#540);
#177=EDGE_CURVE('',#149,#150,#89,.T.);
#178=EDGE_CURVE('',#151,#149,#90,.T.);
#179=EDGE_CURVE('',#152,#151,#91,.T.);
#180=EDGE_CURVE('',#150,#152,#92,.T.);
#181=EDGE_CURVE('',#149,#153,#93,.T.);
#182=EDGE_CURVE('',#154,#153,#94,.T.);
#183=EDGE_CURVE('',#154,#151,#95,.T.);
#184=EDGE_CURVE('',#155,#150,#96,.T.);
#185=EDGE_CURVE('',#155,#156,#97,.T.);
#186=EDGE_CURVE('',#157,#156,#98,.T.);
#187=EDGE_CURVE('',#158,#157,#99,.T.);
#188=EDGE_CURVE('',#159,#158,#100,.T.);
#189=EDGE_CURVE('',#153,#159,#101,.T.);
#190=EDGE_CURVE('',#160,#160,#33,.T.);
#191=EDGE_CURVE('',#161,#161,#34,.T.);
#192=EDGE_CURVE('',#162,#162,#35,.T.);
#193=EDGE_CURVE('',#163,#163,#36,.T.);
#194=EDGE_CURVE('',#164,#164,#37,.T.);
#195=EDGE_CURVE('',#165,#165,#38,.T.);
#196=EDGE_CURVE('',#166,#155,#102,.T.);
#197=EDGE_CURVE('',#167,#166,#103,.T.);
#198=EDGE_CURVE('',#156,#167,#104,.T.);
#199=EDGE_CURVE('',#152,#166,#105,.T.);
#200=EDGE_CURVE('',#160,#168,#106,.T.);
#201=EDGE_CURVE('',#168,#168,#39,.T.);
#202=EDGE_CURVE('',#161,#169,#107,.T.);
#203=EDGE_CURVE('',#169,#169,#40,.T.);
#204=EDGE_CURVE('',#162,#170,#108,.T.);
#205=EDGE_CURVE('',#170,#170,#41,.T.);
#206=EDGE_CURVE('',#163,#171,#109,.T.);
#207=EDGE_CURVE('',#171,#171,#42,.T.);
#208=EDGE_CURVE('',#164,#172,#110,.T.);
#209=EDGE_CURVE('',#172,#172,#43,.T.);
#210=EDGE_CURVE('',#165,#173,#111,.T.);
#211=EDGE_CURVE('',#173,#173,#44,.T.);
#212=EDGE_CURVE('',#174,#159,#112,.T.);
#213=EDGE_CURVE('',#154,#174,#113,.T.);
#214=EDGE_CURVE('',#167,#175,#114,.T.);
#215=EDGE_CURVE('',#157,#175,#115,.T.);
#216=EDGE_CURVE('',#176,#175,#116,.T.);
#217=EDGE_CURVE('',#158,#176,#117,.T.);
#218=EDGE_CURVE('',#176,#174,#118,.T.);
#219=ORIENTED_EDGE('',*,*,#177,.F.);
#220=ORIENTED_EDGE('',*,*,#178,.F.);
#221=ORIENTED_EDGE('',*,*,#179,.F.);
#222=ORIENTED_EDGE('',*,*,#180,.F.);
#223=ORIENTED_EDGE('',*,*,#178,.T.);
#224=ORIENTED_EDGE('',*,*,#181,.T.);
#225=ORIENTED_EDGE('',*,*,#182,.F.);
#226=ORIENTED_EDGE('',*,*,#183,.T.);
#227=ORIENTED_EDGE('',*,*,#177,.T.);
#228=ORIENTED_EDGE('',*,*,#184,.F.);
#229=ORIENTED_EDGE('',*,*,#185,.T.);
#230=ORIENTED_EDGE('',*,*,#186,.F.);
#231=ORIENTED_EDGE('',*,*,#187,.F.);
#232=ORIENTED_EDGE('',*,*,#188,.F.);
#233=ORIENTED_EDGE('',*,*,#189,.F.);
#234=ORIENTED_EDGE('',*,*,#181,.F.);
#235=ORIENTED_EDGE('',*,*,#190,.T.);
#236=ORIENTED_EDGE('',*,*,#191,.T.);
#237=ORIENTED_EDGE('',*,*,#192,.T.);
#238=ORIENTED_EDGE('',*,*,#193,.T.);
#239=ORIENTED_EDGE('',*,*,#194,.T.);
#240=ORIENTED_EDGE('',*,*,#195,.T.);
#241=ORIENTED_EDGE('',*,*,#185,.F.);
#242=ORIENTED_EDGE('',*,*,#196,.F.);
#243=ORIENTED_EDGE('',*,*,#197,.F.);
#244=ORIENTED_EDGE('',*,*,#198,.F.);
#245=ORIENTED_EDGE('',*,*,#180,.T.);
#246=ORIENTED_EDGE('',*,*,#199,.T.);
#247=ORIENTED_EDGE('',*,*,#196,.T.);
#248=ORIENTED_EDGE('',*,*,#184,.T.);
#249=ORIENTED_EDGE('',*,*,#190,.F.);
#250=ORIENTED_EDGE('',*,*,#200,.T.);
#251=ORIENTED_EDGE('',*,*,#201,.F.);
#252=ORIENTED_EDGE('',*,*,#200,.F.);
#253=ORIENTED_EDGE('',*,*,#191,.F.);
#254=ORIENTED_EDGE('',*,*,#202,.T.);
#255=ORIENTED_EDGE('',*,*,#203,.F.);
#256=ORIENTED_EDGE('',*,*,#202,.F.);
#257=ORIENTED_EDGE('',*,*,#192,.F.);
#258=ORIENTED_EDGE('',*,*,#204,.T.);
#259=ORIENTED_EDGE('',*,*,#205,.F.);
#260=ORIENTED_EDGE('',*,*,#204,.F.);
#261=ORIENTED_EDGE('',*,*,#193,.F.);
#262=ORIENTED_EDGE('',*,*,#206,.T.);
#263=ORIENTED_EDGE('',*,*,#207,.F.);
#264=ORIENTED_EDGE('',*,*,#206,.F.);
#265=ORIENTED_EDGE('',*,*,#194,.F.);
#266=ORIENTED_EDGE('',*,*,#208,.T.);
#267=ORIENTED_EDGE('',*,*,#209,.F.);
#268=ORIENTED_EDGE('',*,*,#208,.F.);
#269=ORIENTED_EDGE('',*,*,#195,.F.);
#270=ORIENTED_EDGE('',*,*,#210,.T.);
#271=ORIENTED_EDGE('',*,*,#211,.F.);
#272=ORIENTED_EDGE('',*,*,#210,.F.);
#273=ORIENTED_EDGE('',*,*,#182,.T.);
#274=ORIENTED_EDGE('',*,*,#189,.T.);
#275=ORIENTED_EDGE('',*,*,#212,.F.);
#276=ORIENTED_EDGE('',*,*,#213,.F.);
#277=ORIENTED_EDGE('',*,*,#198,.T.);
#278=ORIENTED_EDGE('',*,*,#214,.T.);
#279=ORIENTED_EDGE('',*,*,#215,.F.);
#280=ORIENTED_EDGE('',*,*,#186,.T.);
#281=ORIENTED_EDGE('',*,*,#215,.T.);
#282=ORIENTED_EDGE('',*,*,#216,.F.);
#283=ORIENTED_EDGE('',*,*,#217,.F.);
#284=ORIENTED_EDGE('',*,*,#187,.T.);
#285=ORIENTED_EDGE('',*,*,#179,.T.);
#286=ORIENTED_EDGE('',*,*,#183,.F.);
#287=ORIENTED_EDGE('',*,*,#213,.T.);
#288=ORIENTED_EDGE('',*,*,#218,.F.);
#289=ORIENTED_EDGE('',*,*,#216,.T.);
#290=ORIENTED_EDGE('',*,*,#214,.F.);
#291=ORIENTED_EDGE('',*,*,#197,.T.);
#292=ORIENTED_EDGE('',*,*,#199,.F.);
#293=ORIENTED_EDGE('',*,*,#201,.T.);
#294=ORIENTED_EDGE('',*,*,#203,.T.);
#295=ORIENTED_EDGE('',*,*,#205,.T.);
#296=ORIENTED_EDGE('',*,*,#207,.T.);
#297=ORIENTED_EDGE('',*,*,#209,.T.);
#298=ORIENTED_EDGE('',*,*,#211,.T.);
#299=ORIENTED_EDGE('',*,*,#188,.T.);
#300=ORIENTED_EDGE('',*,*,#217,.T.);
#301=ORIENTED_EDGE('',*,*,#218,.T.);
#302=ORIENTED_EDGE('',*,*,#212,.T.);
#303=PLANE('',#343);
#304=PLANE('',#344);
#305=PLANE('',#345);
#306=PLANE('',#352);
#307=PLANE('',#353);
#308=PLANE('',#366);
#309=PLANE('',#367);
#310=PLANE('',#368);
#311=PLANE('',#369);
#312=PLANE('',#370);
#313=ADVANCED_FACE('',(#45),#303,.F.);
#314=ADVANCED_FACE('',(#46),#304,.T.);
#315=ADVANCED_FACE('',(#47,#21,#22,#23,#24,#25,#26),#305,.F.);
#316=ADVANCED_FACE('',(#48),#306,.F.);
#317=ADVANCED_FACE('',(#49),#307,.T.);
#318=ADVANCED_FACE('',(#50),#15,.F.);
#319=ADVANCED_FACE('',(#51),#16,.F.);
#320=ADVANCED_FACE('',(#52),#17,.F.);
#321=ADVANCED_FACE('',(#53),#18,.F.);
#322=ADVANCED_FACE('',(#54),#19,.F.);
#323=ADVANCED_FACE('',(#55),#20,.F.);
#324=ADVANCED_FACE('',(#56),#308,.F.);
#325=ADVANCED_FACE('',(#57),#309,.T.);
#326=ADVANCED_FACE('',(#58),#310,.F.);
#327=ADVANCED_FACE('',(#59,#27,#28,#29,#30,#31,#32),#311,.T.);
#328=ADVANCED_FACE('',(#60),#312,.T.);
#329=CLOSED_SHELL('',(#313,#314,#315,#316,#317,#318,#319,#320,#321,#322,
#323,#324,#325,#326,#327,#328));
#330=DERIVED_UNIT_ELEMENT(#332,1.);
#331=DERIVED_UNIT_ELEMENT(#551,-3.);
#332=(
MASS_UNIT()
NAMED_UNIT(*)
SI_UNIT(.KILO.,.GRAM.)
);
#333=DERIVED_UNIT((#330,#331));
#334=MEASURE_REPRESENTATION_ITEM('density measure',
POSITIVE_RATIO_MEASURE(7850.),#333);
#335=PROPERTY_DEFINITION_REPRESENTATION(#340,#337);
#336=PROPERTY_DEFINITION_REPRESENTATION(#341,#338);
#337=REPRESENTATION('material name',(#339),#548);
#338=REPRESENTATION('density',(#334),#548);
#339=DESCRIPTIVE_REPRESENTATION_ITEM('Stahl','Stahl');
#340=PROPERTY_DEFINITION('material property','material name',#558);
#341=PROPERTY_DEFINITION('material property','density of part',#558);
#342=AXIS2_PLACEMENT_3D('placement',#459,#371,#372);
#343=AXIS2_PLACEMENT_3D('',#460,#373,#374);
#344=AXIS2_PLACEMENT_3D('',#469,#379,#380);
#345=AXIS2_PLACEMENT_3D('',#475,#384,#385);
#346=AXIS2_PLACEMENT_3D('',#488,#392,#393);
#347=AXIS2_PLACEMENT_3D('',#490,#394,#395);
#348=AXIS2_PLACEMENT_3D('',#492,#396,#397);
#349=AXIS2_PLACEMENT_3D('',#494,#398,#399);
#350=AXIS2_PLACEMENT_3D('',#496,#400,#401);
#351=AXIS2_PLACEMENT_3D('',#498,#402,#403);
#352=AXIS2_PLACEMENT_3D('',#499,#404,#405);
#353=AXIS2_PLACEMENT_3D('',#505,#409,#410);
#354=AXIS2_PLACEMENT_3D('',#507,#412,#413);
#355=AXIS2_PLACEMENT_3D('',#510,#415,#416);
#356=AXIS2_PLACEMENT_3D('',#511,#417,#418);
#357=AXIS2_PLACEMENT_3D('',#514,#420,#421);
#358=AXIS2_PLACEMENT_3D('',#515,#422,#423);
#359=AXIS2_PLACEMENT_3D('',#518,#425,#426);
#360=AXIS2_PLACEMENT_3D('',#519,#427,#428);
#361=AXIS2_PLACEMENT_3D('',#522,#430,#431);
#362=AXIS2_PLACEMENT_3D('',#523,#432,#433);
#363=AXIS2_PLACEMENT_3D('',#526,#435,#436);
#364=AXIS2_PLACEMENT_3D('',#527,#437,#438);
#365=AXIS2_PLACEMENT_3D('',#530,#440,#441);
#366=AXIS2_PLACEMENT_3D('',#531,#442,#443);
#367=AXIS2_PLACEMENT_3D('',#535,#446,#447);
#368=AXIS2_PLACEMENT_3D('',#539,#450,#451);
#369=AXIS2_PLACEMENT_3D('',#543,#454,#455);
#370=AXIS2_PLACEMENT_3D('',#545,#457,#458);
#371=DIRECTION('axis',(0.,0.,1.));
#372=DIRECTION('refdir',(1.,0.,0.));
#373=DIRECTION('center_axis',(1.,0.,0.));
#374=DIRECTION('ref_axis',(0.,0.,-1.));
#375=DIRECTION('',(0.,0.,-1.));
#376=DIRECTION('',(0.,-1.,0.));
#377=DIRECTION('',(0.,0.,1.));
#378=DIRECTION('',(0.,1.,0.));
#379=DIRECTION('center_axis',(0.,0.,1.));
#380=DIRECTION('ref_axis',(1.,0.,0.));
#381=DIRECTION('',(1.,0.,0.));
#382=DIRECTION('',(0.,-1.,0.));
#383=DIRECTION('',(-1.,0.,0.));
#384=DIRECTION('center_axis',(0.,1.,0.));
#385=DIRECTION('ref_axis',(1.,0.,0.));
#386=DIRECTION('',(-1.,0.,0.));
#387=DIRECTION('',(0.,0.,1.));
#388=DIRECTION('',(1.,0.,0.));
#389=DIRECTION('',(0.,0.,-1.));
#390=DIRECTION('',(1.,0.,0.));
#391=DIRECTION('',(0.,0.,1.));
#392=DIRECTION('center_axis',(0.,1.,0.));
#393=DIRECTION('ref_axis',(1.,0.,0.));
#394=DIRECTION('center_axis',(0.,1.,0.));
#395=DIRECTION('ref_axis',(1.,0.,0.));
#396=DIRECTION('center_axis',(0.,1.,0.));
#397=DIRECTION('ref_axis',(1.,0.,0.));
#398=DIRECTION('center_axis',(0.,1.,0.));
#399=DIRECTION('ref_axis',(1.,0.,0.));
#400=DIRECTION('center_axis',(0.,1.,0.));
#401=DIRECTION('ref_axis',(1.,0.,0.));
#402=DIRECTION('center_axis',(0.,1.,0.));
#403=DIRECTION('ref_axis',(1.,0.,0.));
#404=DIRECTION('center_axis',(-1.,0.,0.));
#405=DIRECTION('ref_axis',(0.,0.,1.));
#406=DIRECTION('',(0.,-1.,0.));
#407=DIRECTION('',(0.,0.,-1.));
#408=DIRECTION('',(0.,1.,0.));
#409=DIRECTION('center_axis',(0.,0.,-1.));
#410=DIRECTION('ref_axis',(-1.,0.,0.));
#411=DIRECTION('',(1.,0.,0.));
#412=DIRECTION('center_axis',(0.,1.,0.));
#413=DIRECTION('ref_axis',(1.,0.,0.));
#414=DIRECTION('',(0.,1.,0.));
#415=DIRECTION('center_axis',(0.,-1.,0.));
#416=DIRECTION('ref_axis',(1.,0.,0.));
#417=DIRECTION('center_axis',(0.,1.,0.));
#418=DIRECTION('ref_axis',(1.,0.,0.));
#419=DIRECTION('',(0.,1.,0.));
#420=DIRECTION('center_axis',(0.,-1.,0.));
#421=DIRECTION('ref_axis',(1.,0.,0.));
#422=DIRECTION('center_axis',(0.,1.,0.));
#423=DIRECTION('ref_axis',(1.,0.,0.));
#424=DIRECTION('',(0.,1.,0.));
#425=DIRECTION('center_axis',(0.,-1.,0.));
#426=DIRECTION('ref_axis',(1.,0.,0.));
#427=DIRECTION('center_axis',(0.,1.,0.));
#428=DIRECTION('ref_axis',(1.,0.,0.));
#429=DIRECTION('',(0.,1.,0.));
#430=DIRECTION('center_axis',(0.,-1.,0.));
#431=DIRECTION('ref_axis',(1.,0.,0.));
#432=DIRECTION('center_axis',(0.,1.,0.));
#433=DIRECTION('ref_axis',(1.,0.,0.));
#434=DIRECTION('',(0.,1.,0.));
#435=DIRECTION('center_axis',(0.,-1.,0.));
#436=DIRECTION('ref_axis',(1.,0.,0.));
#437=DIRECTION('center_axis',(0.,1.,0.));
#438=DIRECTION('ref_axis',(1.,0.,0.));
#439=DIRECTION('',(0.,1.,0.));
#440=DIRECTION('center_axis',(0.,-1.,0.));
#441=DIRECTION('ref_axis',(1.,0.,0.));
#442=DIRECTION('center_axis',(1.,0.,0.));
#443=DIRECTION('ref_axis',(0.,0.,-1.));
#444=DIRECTION('',(0.,-1.,0.));
#445=DIRECTION('',(0.,0.,1.));
#446=DIRECTION('center_axis',(0.,0.,1.));
#447=DIRECTION('ref_axis',(1.,0.,0.));
#448=DIRECTION('',(-1.,0.,0.));
#449=DIRECTION('',(0.,1.,0.));
#450=DIRECTION('center_axis',(-1.,0.,0.));
#451=DIRECTION('ref_axis',(0.,0.,1.));
#452=DIRECTION('',(0.,0.,-1.));
#453=DIRECTION('',(0.,1.,0.));
#454=DIRECTION('center_axis',(0.,1.,0.));
#455=DIRECTION('ref_axis',(0.,0.,1.));
#456=DIRECTION('',(-1.,0.,0.));
#457=DIRECTION('center_axis',(0.,0.,1.));
#458=DIRECTION('ref_axis',(1.,0.,0.));
#459=CARTESIAN_POINT('',(0.,0.,0.));
#460=CARTESIAN_POINT('Origin',(-451.25,0.,-60.));
#461=CARTESIAN_POINT('',(-451.25,0.,27.));
#462=CARTESIAN_POINT('',(-451.25,-2.77555756156289E-16,-61.));
#463=CARTESIAN_POINT('',(-451.25,0.,-30.));
#464=CARTESIAN_POINT('',(-451.25,2.,27.));
#465=CARTESIAN_POINT('',(-451.25,-0.5,27.));
#466=CARTESIAN_POINT('',(-451.25,2.,-61.));
#467=CARTESIAN_POINT('',(-451.25,2.,-30.));
#468=CARTESIAN_POINT('',(-451.25,-1.38777878078145E-16,-61.));
#469=CARTESIAN_POINT('Origin',(-374.75,-1.,27.));
#470=CARTESIAN_POINT('',(-161.25,0.,27.));
#471=CARTESIAN_POINT('',(-187.375,0.,27.));
#472=CARTESIAN_POINT('',(-161.25,2.,27.));
#473=CARTESIAN_POINT('',(-161.25,-1.,27.));
#474=CARTESIAN_POINT('',(-217.375,2.,27.));
#475=CARTESIAN_POINT('Origin',(0.,0.,0.));
#476=CARTESIAN_POINT('',(158.75,-2.77555756156289E-16,-61.));
#477=CARTESIAN_POINT('',(82.5,0.,-61.));
#478=CARTESIAN_POINT('',(158.75,0.,27.));
#479=CARTESIAN_POINT('',(158.75,0.,30.));
#480=CARTESIAN_POINT('',(-131.25,0.,27.));
#481=CARTESIAN_POINT('',(71.125,0.,27.));
#482=CARTESIAN_POINT('',(-131.25,0.,60.));
#483=CARTESIAN_POINT('',(-131.25,0.,11.75));
#484=CARTESIAN_POINT('',(-161.25,0.,60.));
#485=CARTESIAN_POINT('',(-82.5,0.,60.));
#486=CARTESIAN_POINT('',(-161.25,0.,30.));
#487=CARTESIAN_POINT('',(-150.5,0.,-51.5));
#488=CARTESIAN_POINT('Origin',(-146.25,0.,-51.5));
#489=CARTESIAN_POINT('',(-443.,0.,-51.5));
#490=CARTESIAN_POINT('Origin',(-438.75,0.,-51.5));
#491=CARTESIAN_POINT('',(142.,0.,-51.5));
#492=CARTESIAN_POINT('Origin',(146.25,0.,-51.5));
#493=CARTESIAN_POINT('',(-150.5,0.,51.5));
#494=CARTESIAN_POINT('Origin',(-146.25,0.,51.5));
#495=CARTESIAN_POINT('',(-443.,0.,13.5));
#496=CARTESIAN_POINT('Origin',(-438.75,0.,13.5));
#497=CARTESIAN_POINT('',(142.,0.,13.5));
#498=CARTESIAN_POINT('Origin',(146.25,0.,13.5));
#499=CARTESIAN_POINT('Origin',(158.75,0.,60.));
#500=CARTESIAN_POINT('',(158.75,2.,-61.));
#501=CARTESIAN_POINT('',(158.75,-1.38777878078145E-16,-61.));
#502=CARTESIAN_POINT('',(158.75,2.,27.));
#503=CARTESIAN_POINT('',(158.75,2.,30.));
#504=CARTESIAN_POINT('',(158.75,-0.5,27.));
#505=CARTESIAN_POINT('Origin',(165.,-2.77555756156289E-16,-61.));
#506=CARTESIAN_POINT('',(165.,2.,-61.));
#507=CARTESIAN_POINT('Origin',(-146.25,0.,-51.5));
#508=CARTESIAN_POINT('',(-150.5,2.,-51.5));
#509=CARTESIAN_POINT('',(-150.5,0.,-51.5));
#510=CARTESIAN_POINT('Origin',(-146.25,2.,-51.5));
#511=CARTESIAN_POINT('Origin',(-438.75,0.,-51.5));
#512=CARTESIAN_POINT('',(-443.,2.,-51.5));
#513=CARTESIAN_POINT('',(-443.,0.,-51.5));
#514=CARTESIAN_POINT('Origin',(-438.75,2.,-51.5));
#515=CARTESIAN_POINT('Origin',(146.25,0.,-51.5));
#516=CARTESIAN_POINT('',(142.,2.,-51.5));
#517=CARTESIAN_POINT('',(142.,0.,-51.5));
#518=CARTESIAN_POINT('Origin',(146.25,2.,-51.5));
#519=CARTESIAN_POINT('Origin',(-146.25,0.,51.5));
#520=CARTESIAN_POINT('',(-150.5,2.,51.5));
#521=CARTESIAN_POINT('',(-150.5,0.,51.5));
#522=CARTESIAN_POINT('Origin',(-146.25,2.,51.5));
#523=CARTESIAN_POINT('Origin',(-438.75,0.,13.5));
#524=CARTESIAN_POINT('',(-443.,2.,13.5));
#525=CARTESIAN_POINT('',(-443.,0.,13.5));
#526=CARTESIAN_POINT('Origin',(-438.75,2.,13.5));
#527=CARTESIAN_POINT('Origin',(146.25,0.,13.5));
#528=CARTESIAN_POINT('',(142.,2.,13.5));
#529=CARTESIAN_POINT('',(142.,0.,13.5));
#530=CARTESIAN_POINT('Origin',(146.25,2.,13.5));
#531=CARTESIAN_POINT('Origin',(-161.25,-1.,60.));
#532=CARTESIAN_POINT('',(-161.25,2.,60.));
#533=CARTESIAN_POINT('',(-161.25,-0.5,60.));
#534=CARTESIAN_POINT('',(-161.25,2.,30.));
#535=CARTESIAN_POINT('Origin',(142.25,-1.,27.));
#536=CARTESIAN_POINT('',(-131.25,2.,27.));
#537=CARTESIAN_POINT('',(-40.625,2.,27.));
#538=CARTESIAN_POINT('',(-131.25,-1.,27.));
#539=CARTESIAN_POINT('Origin',(-131.25,-1.,23.5));
#540=CARTESIAN_POINT('',(-131.25,2.,60.));
#541=CARTESIAN_POINT('',(-131.25,2.,11.75));
#542=CARTESIAN_POINT('',(-131.25,-0.5,60.));
#543=CARTESIAN_POINT('Origin',(0.,2.,0.));
#544=CARTESIAN_POINT('',(-165.,2.,60.));
#545=CARTESIAN_POINT('Origin',(-165.,0.,60.));
#546=UNCERTAINTY_MEASURE_WITH_UNIT(LENGTH_MEASURE(0.01),#550,
'DISTANCE_ACCURACY_VALUE',
'Maximum model space distance between geometric entities at asserted c
onnectivities');
#547=UNCERTAINTY_MEASURE_WITH_UNIT(LENGTH_MEASURE(0.01),#550,
'DISTANCE_ACCURACY_VALUE',
'Maximum model space distance between geometric entities at asserted c
onnectivities');
#548=(
GEOMETRIC_REPRESENTATION_CONTEXT(3)
GLOBAL_UNCERTAINTY_ASSIGNED_CONTEXT((#546))
GLOBAL_UNIT_ASSIGNED_CONTEXT((#550,#552,#553))
REPRESENTATION_CONTEXT('','3D')
);
#549=(
GEOMETRIC_REPRESENTATION_CONTEXT(3)
GLOBAL_UNCERTAINTY_ASSIGNED_CONTEXT((#547))
GLOBAL_UNIT_ASSIGNED_CONTEXT((#550,#552,#553))
REPRESENTATION_CONTEXT('','3D')
);
#550=(
LENGTH_UNIT()
NAMED_UNIT(*)
SI_UNIT(.MILLI.,.METRE.)
);
#551=(
LENGTH_UNIT()
NAMED_UNIT(*)
SI_UNIT($,.METRE.)
);
#552=(
NAMED_UNIT(*)
PLANE_ANGLE_UNIT()
SI_UNIT($,.RADIAN.)
);
#553=(
NAMED_UNIT(*)
SI_UNIT($,.STERADIAN.)
SOLID_ANGLE_UNIT()
);
#554=SHAPE_DEFINITION_REPRESENTATION(#555,#556);
#555=PRODUCT_DEFINITION_SHAPE('',$,#558);
#556=SHAPE_REPRESENTATION('',(#342),#548);
#557=PRODUCT_DEFINITION_CONTEXT('part definition',#562,'design');
#558=PRODUCT_DEFINITION('Federplatte_LiMax160L_2-Reihig_8 Cell',
'Federplatte_LiMax160L_2-Reihig_8 Cell v4',#559,#557);
#559=PRODUCT_DEFINITION_FORMATION('',$,#564);
#560=PRODUCT_RELATED_PRODUCT_CATEGORY(
'Federplatte_LiMax160L_2-Reihig_8 Cell v4',
'Federplatte_LiMax160L_2-Reihig_8 Cell v4',(#564));
#561=APPLICATION_PROTOCOL_DEFINITION('international standard',
'automotive_design',2009,#562);
#562=APPLICATION_CONTEXT(
'Core Data for Automotive Mechanical Design Process');
#563=PRODUCT_CONTEXT('part definition',#562,'mechanical');
#564=PRODUCT('Federplatte_LiMax160L_2-Reihig_8 Cell',
'Federplatte_LiMax160L_2-Reihig_8 Cell v4',$,(#563));
#565=PRESENTATION_STYLE_ASSIGNMENT((#567));
#566=PRESENTATION_STYLE_ASSIGNMENT((#568));
#567=SURFACE_STYLE_USAGE(.BOTH.,#569);
#568=SURFACE_STYLE_USAGE(.BOTH.,#570);
#569=SURFACE_SIDE_STYLE('',(#571));
#570=SURFACE_SIDE_STYLE('',(#572));
#571=SURFACE_STYLE_FILL_AREA(#573);
#572=SURFACE_STYLE_FILL_AREA(#574);
#573=FILL_AREA_STYLE('Stahl - satiniert',(#575));
#574=FILL_AREA_STYLE('Aluminium - poliert',(#576));
#575=FILL_AREA_STYLE_COLOUR('Stahl - satiniert',#577);
#576=FILL_AREA_STYLE_COLOUR('Aluminium - poliert',#578);
#577=COLOUR_RGB('Stahl - satiniert',0.627450980392157,0.627450980392157,
0.627450980392157);
#578=COLOUR_RGB('Aluminium - poliert',0.96078431372549,0.96078431372549,
0.964705882352941);
ENDSEC;
END-ISO-10303-21;
