ISO-10303-21;
HEADER;
/* Generated by software containing ST-Developer
 * from STEP Tools, Inc. (www.steptools.com) 
 */

FILE_DESCRIPTION(
/* description */ (''),
/* implementation_level */ '2;1');

FILE_NAME(
/* name */ 
'D:/Projekte/ecs_greenPowerPack/greenPowerPack320_200/LiMax160L_2-Reih
ig_8 Cell/Deckel_LiMax160L_2-Reihig_8 Cell.step',
/* time_stamp */ '2021-10-13T15:12:57+02:00',
/* author */ (''),
/* organization */ (''),
/* preprocessor_version */ 'ST-DEVELOPER v18.1',
/* originating_system */ 'Autodesk Translation Framework v10.10.0.1391',

/* authorisation */ '');

FILE_SCHEMA (('AUTOMOTIVE_DESIGN { 1 0 10303 214 3 1 1 }'));
ENDSEC;

DATA;
#10=MECHANICAL_DESIGN_GEOMETRIC_PRESENTATION_REPRESENTATION('',(#13),#631);
#11=SHAPE_REPRESENTATION_RELATIONSHIP('SRR','None',#638,#12);
#12=ADVANCED_BREP_SHAPE_REPRESENTATION('',(#14),#630);
#13=STYLED_ITEM('',(#648),#14);
#14=MANIFOLD_SOLID_BREP('K\X\F6rper1',#366);
#15=CYLINDRICAL_SURFACE('',#401,2.5);
#16=CYLINDRICAL_SURFACE('',#404,2.5);
#17=CYLINDRICAL_SURFACE('',#407,2.5);
#18=CYLINDRICAL_SURFACE('',#410,2.5);
#19=CYLINDRICAL_SURFACE('',#413,2.5);
#20=CYLINDRICAL_SURFACE('',#416,2.5);
#21=CYLINDRICAL_SURFACE('',#420,2.5);
#22=CONICAL_SURFACE('',#399,3.5,0.785398163397448);
#23=CONICAL_SURFACE('',#402,3.5,0.785398163397448);
#24=CONICAL_SURFACE('',#405,3.5,0.785398163397448);
#25=CONICAL_SURFACE('',#408,3.5,0.785398163397448);
#26=CONICAL_SURFACE('',#411,3.5,0.785398163397448);
#27=CONICAL_SURFACE('',#414,3.5,0.785398163397448);
#28=CONICAL_SURFACE('',#418,3.5,0.785398163397448);
#29=FACE_BOUND('',#86,.T.);
#30=FACE_BOUND('',#87,.T.);
#31=FACE_BOUND('',#88,.T.);
#32=FACE_BOUND('',#89,.T.);
#33=FACE_BOUND('',#90,.T.);
#34=FACE_BOUND('',#91,.T.);
#35=FACE_BOUND('',#92,.T.);
#36=FACE_BOUND('',#96,.T.);
#37=FACE_BOUND('',#97,.T.);
#38=FACE_BOUND('',#98,.T.);
#39=FACE_BOUND('',#99,.T.);
#40=FACE_BOUND('',#100,.T.);
#41=FACE_BOUND('',#101,.T.);
#42=FACE_BOUND('',#102,.T.);
#43=CIRCLE('',#382,2.5);
#44=CIRCLE('',#383,2.5);
#45=CIRCLE('',#384,2.5);
#46=CIRCLE('',#385,2.5);
#47=CIRCLE('',#386,2.5);
#48=CIRCLE('',#387,2.5);
#49=CIRCLE('',#388,2.5);
#50=CIRCLE('',#392,4.5);
#51=CIRCLE('',#393,4.5);
#52=CIRCLE('',#394,4.5);
#53=CIRCLE('',#395,4.5);
#54=CIRCLE('',#396,4.5);
#55=CIRCLE('',#397,4.5);
#56=CIRCLE('',#398,4.5);
#57=CIRCLE('',#400,2.5);
#58=CIRCLE('',#403,2.5);
#59=CIRCLE('',#406,2.5);
#60=CIRCLE('',#409,2.5);
#61=CIRCLE('',#412,2.5);
#62=CIRCLE('',#415,2.5);
#63=CIRCLE('',#419,2.5);
#64=FACE_OUTER_BOUND('',#84,.T.);
#65=FACE_OUTER_BOUND('',#85,.T.);
#66=FACE_OUTER_BOUND('',#93,.T.);
#67=FACE_OUTER_BOUND('',#94,.T.);
#68=FACE_OUTER_BOUND('',#95,.T.);
#69=FACE_OUTER_BOUND('',#103,.T.);
#70=FACE_OUTER_BOUND('',#104,.T.);
#71=FACE_OUTER_BOUND('',#105,.T.);
#72=FACE_OUTER_BOUND('',#106,.T.);
#73=FACE_OUTER_BOUND('',#107,.T.);
#74=FACE_OUTER_BOUND('',#108,.T.);
#75=FACE_OUTER_BOUND('',#109,.T.);
#76=FACE_OUTER_BOUND('',#110,.T.);
#77=FACE_OUTER_BOUND('',#111,.T.);
#78=FACE_OUTER_BOUND('',#112,.T.);
#79=FACE_OUTER_BOUND('',#113,.T.);
#80=FACE_OUTER_BOUND('',#114,.T.);
#81=FACE_OUTER_BOUND('',#115,.T.);
#82=FACE_OUTER_BOUND('',#116,.T.);
#83=FACE_OUTER_BOUND('',#117,.T.);
#84=EDGE_LOOP('',(#246,#247,#248,#249));
#85=EDGE_LOOP('',(#250,#251,#252,#253));
#86=EDGE_LOOP('',(#254));
#87=EDGE_LOOP('',(#255));
#88=EDGE_LOOP('',(#256));
#89=EDGE_LOOP('',(#257));
#90=EDGE_LOOP('',(#258));
#91=EDGE_LOOP('',(#259));
#92=EDGE_LOOP('',(#260));
#93=EDGE_LOOP('',(#261,#262,#263,#264));
#94=EDGE_LOOP('',(#265,#266,#267,#268));
#95=EDGE_LOOP('',(#269,#270,#271,#272));
#96=EDGE_LOOP('',(#273));
#97=EDGE_LOOP('',(#274));
#98=EDGE_LOOP('',(#275));
#99=EDGE_LOOP('',(#276));
#100=EDGE_LOOP('',(#277));
#101=EDGE_LOOP('',(#278));
#102=EDGE_LOOP('',(#279));
#103=EDGE_LOOP('',(#280,#281,#282,#283));
#104=EDGE_LOOP('',(#284,#285,#286,#287));
#105=EDGE_LOOP('',(#288,#289,#290,#291));
#106=EDGE_LOOP('',(#292,#293,#294,#295));
#107=EDGE_LOOP('',(#296,#297,#298,#299));
#108=EDGE_LOOP('',(#300,#301,#302,#303));
#109=EDGE_LOOP('',(#304,#305,#306,#307));
#110=EDGE_LOOP('',(#308,#309,#310,#311));
#111=EDGE_LOOP('',(#312,#313,#314,#315));
#112=EDGE_LOOP('',(#316,#317,#318,#319));
#113=EDGE_LOOP('',(#320,#321,#322,#323));
#114=EDGE_LOOP('',(#324,#325,#326,#327));
#115=EDGE_LOOP('',(#328,#329,#330,#331));
#116=EDGE_LOOP('',(#332,#333,#334,#335));
#117=EDGE_LOOP('',(#336,#337,#338,#339));
#118=LINE('',#535,#144);
#119=LINE('',#537,#145);
#120=LINE('',#539,#146);
#121=LINE('',#540,#147);
#122=LINE('',#543,#148);
#123=LINE('',#545,#149);
#124=LINE('',#546,#150);
#125=LINE('',#563,#151);
#126=LINE('',#564,#152);
#127=LINE('',#567,#153);
#128=LINE('',#568,#154);
#129=LINE('',#570,#155);
#130=LINE('',#587,#156);
#131=LINE('',#590,#157);
#132=LINE('',#593,#158);
#133=LINE('',#596,#159);
#134=LINE('',#599,#160);
#135=LINE('',#602,#161);
#136=LINE('',#605,#162);
#137=LINE('',#608,#163);
#138=LINE('',#611,#164);
#139=LINE('',#614,#165);
#140=LINE('',#617,#166);
#141=LINE('',#620,#167);
#142=LINE('',#624,#168);
#143=LINE('',#627,#169);
#144=VECTOR('',#425,10.);
#145=VECTOR('',#426,10.);
#146=VECTOR('',#427,10.);
#147=VECTOR('',#428,10.);
#148=VECTOR('',#431,10.);
#149=VECTOR('',#432,10.);
#150=VECTOR('',#433,10.);
#151=VECTOR('',#450,10.);
#152=VECTOR('',#451,10.);
#153=VECTOR('',#454,10.);
#154=VECTOR('',#455,10.);
#155=VECTOR('',#458,10.);
#156=VECTOR('',#475,3.5);
#157=VECTOR('',#480,2.5);
#158=VECTOR('',#483,3.5);
#159=VECTOR('',#488,2.5);
#160=VECTOR('',#491,3.5);
#161=VECTOR('',#496,2.5);
#162=VECTOR('',#499,3.5);
#163=VECTOR('',#504,2.5);
#164=VECTOR('',#507,3.5);
#165=VECTOR('',#512,2.5);
#166=VECTOR('',#515,3.5);
#167=VECTOR('',#520,2.5);
#168=VECTOR('',#525,3.5);
#169=VECTOR('',#530,2.5);
#170=VERTEX_POINT('',#533);
#171=VERTEX_POINT('',#534);
#172=VERTEX_POINT('',#536);
#173=VERTEX_POINT('',#538);
#174=VERTEX_POINT('',#542);
#175=VERTEX_POINT('',#544);
#176=VERTEX_POINT('',#547);
#177=VERTEX_POINT('',#549);
#178=VERTEX_POINT('',#551);
#179=VERTEX_POINT('',#553);
#180=VERTEX_POINT('',#555);
#181=VERTEX_POINT('',#557);
#182=VERTEX_POINT('',#559);
#183=VERTEX_POINT('',#562);
#184=VERTEX_POINT('',#566);
#185=VERTEX_POINT('',#571);
#186=VERTEX_POINT('',#573);
#187=VERTEX_POINT('',#575);
#188=VERTEX_POINT('',#577);
#189=VERTEX_POINT('',#579);
#190=VERTEX_POINT('',#581);
#191=VERTEX_POINT('',#583);
#192=VERTEX_POINT('',#586);
#193=VERTEX_POINT('',#592);
#194=VERTEX_POINT('',#598);
#195=VERTEX_POINT('',#604);
#196=VERTEX_POINT('',#610);
#197=VERTEX_POINT('',#616);
#198=VERTEX_POINT('',#623);
#199=EDGE_CURVE('',#170,#171,#118,.T.);
#200=EDGE_CURVE('',#172,#170,#119,.T.);
#201=EDGE_CURVE('',#173,#172,#120,.T.);
#202=EDGE_CURVE('',#171,#173,#121,.T.);
#203=EDGE_CURVE('',#170,#174,#122,.T.);
#204=EDGE_CURVE('',#174,#175,#123,.T.);
#205=EDGE_CURVE('',#175,#172,#124,.T.);
#206=EDGE_CURVE('',#176,#176,#43,.T.);
#207=EDGE_CURVE('',#177,#177,#44,.T.);
#208=EDGE_CURVE('',#178,#178,#45,.T.);
#209=EDGE_CURVE('',#179,#179,#46,.T.);
#210=EDGE_CURVE('',#180,#180,#47,.T.);
#211=EDGE_CURVE('',#181,#181,#48,.T.);
#212=EDGE_CURVE('',#182,#182,#49,.T.);
#213=EDGE_CURVE('',#183,#171,#125,.T.);
#214=EDGE_CURVE('',#183,#174,#126,.T.);
#215=EDGE_CURVE('',#184,#183,#127,.T.);
#216=EDGE_CURVE('',#175,#184,#128,.T.);
#217=EDGE_CURVE('',#173,#184,#129,.T.);
#218=EDGE_CURVE('',#185,#185,#50,.T.);
#219=EDGE_CURVE('',#186,#186,#51,.T.);
#220=EDGE_CURVE('',#187,#187,#52,.T.);
#221=EDGE_CURVE('',#188,#188,#53,.T.);
#222=EDGE_CURVE('',#189,#189,#54,.T.);
#223=EDGE_CURVE('',#190,#190,#55,.T.);
#224=EDGE_CURVE('',#191,#191,#56,.T.);
#225=EDGE_CURVE('',#191,#192,#130,.T.);
#226=EDGE_CURVE('',#192,#192,#57,.T.);
#227=EDGE_CURVE('',#192,#182,#131,.T.);
#228=EDGE_CURVE('',#190,#193,#132,.T.);
#229=EDGE_CURVE('',#193,#193,#58,.T.);
#230=EDGE_CURVE('',#193,#181,#133,.T.);
#231=EDGE_CURVE('',#189,#194,#134,.T.);
#232=EDGE_CURVE('',#194,#194,#59,.T.);
#233=EDGE_CURVE('',#194,#180,#135,.T.);
#234=EDGE_CURVE('',#188,#195,#136,.T.);
#235=EDGE_CURVE('',#195,#195,#60,.T.);
#236=EDGE_CURVE('',#195,#179,#137,.T.);
#237=EDGE_CURVE('',#187,#196,#138,.T.);
#238=EDGE_CURVE('',#196,#196,#61,.T.);
#239=EDGE_CURVE('',#196,#178,#139,.T.);
#240=EDGE_CURVE('',#186,#197,#140,.T.);
#241=EDGE_CURVE('',#197,#197,#62,.T.);
#242=EDGE_CURVE('',#197,#177,#141,.T.);
#243=EDGE_CURVE('',#185,#198,#142,.T.);
#244=EDGE_CURVE('',#198,#198,#63,.T.);
#245=EDGE_CURVE('',#198,#176,#143,.T.);
#246=ORIENTED_EDGE('',*,*,#199,.F.);
#247=ORIENTED_EDGE('',*,*,#200,.F.);
#248=ORIENTED_EDGE('',*,*,#201,.F.);
#249=ORIENTED_EDGE('',*,*,#202,.F.);
#250=ORIENTED_EDGE('',*,*,#200,.T.);
#251=ORIENTED_EDGE('',*,*,#203,.T.);
#252=ORIENTED_EDGE('',*,*,#204,.T.);
#253=ORIENTED_EDGE('',*,*,#205,.T.);
#254=ORIENTED_EDGE('',*,*,#206,.T.);
#255=ORIENTED_EDGE('',*,*,#207,.T.);
#256=ORIENTED_EDGE('',*,*,#208,.T.);
#257=ORIENTED_EDGE('',*,*,#209,.T.);
#258=ORIENTED_EDGE('',*,*,#210,.T.);
#259=ORIENTED_EDGE('',*,*,#211,.T.);
#260=ORIENTED_EDGE('',*,*,#212,.T.);
#261=ORIENTED_EDGE('',*,*,#199,.T.);
#262=ORIENTED_EDGE('',*,*,#213,.F.);
#263=ORIENTED_EDGE('',*,*,#214,.T.);
#264=ORIENTED_EDGE('',*,*,#203,.F.);
#265=ORIENTED_EDGE('',*,*,#214,.F.);
#266=ORIENTED_EDGE('',*,*,#215,.F.);
#267=ORIENTED_EDGE('',*,*,#216,.F.);
#268=ORIENTED_EDGE('',*,*,#204,.F.);
#269=ORIENTED_EDGE('',*,*,#202,.T.);
#270=ORIENTED_EDGE('',*,*,#217,.T.);
#271=ORIENTED_EDGE('',*,*,#215,.T.);
#272=ORIENTED_EDGE('',*,*,#213,.T.);
#273=ORIENTED_EDGE('',*,*,#218,.T.);
#274=ORIENTED_EDGE('',*,*,#219,.T.);
#275=ORIENTED_EDGE('',*,*,#220,.T.);
#276=ORIENTED_EDGE('',*,*,#221,.T.);
#277=ORIENTED_EDGE('',*,*,#222,.T.);
#278=ORIENTED_EDGE('',*,*,#223,.T.);
#279=ORIENTED_EDGE('',*,*,#224,.T.);
#280=ORIENTED_EDGE('',*,*,#224,.F.);
#281=ORIENTED_EDGE('',*,*,#225,.T.);
#282=ORIENTED_EDGE('',*,*,#226,.T.);
#283=ORIENTED_EDGE('',*,*,#225,.F.);
#284=ORIENTED_EDGE('',*,*,#226,.F.);
#285=ORIENTED_EDGE('',*,*,#227,.T.);
#286=ORIENTED_EDGE('',*,*,#212,.F.);
#287=ORIENTED_EDGE('',*,*,#227,.F.);
#288=ORIENTED_EDGE('',*,*,#223,.F.);
#289=ORIENTED_EDGE('',*,*,#228,.T.);
#290=ORIENTED_EDGE('',*,*,#229,.T.);
#291=ORIENTED_EDGE('',*,*,#228,.F.);
#292=ORIENTED_EDGE('',*,*,#229,.F.);
#293=ORIENTED_EDGE('',*,*,#230,.T.);
#294=ORIENTED_EDGE('',*,*,#211,.F.);
#295=ORIENTED_EDGE('',*,*,#230,.F.);
#296=ORIENTED_EDGE('',*,*,#222,.F.);
#297=ORIENTED_EDGE('',*,*,#231,.T.);
#298=ORIENTED_EDGE('',*,*,#232,.T.);
#299=ORIENTED_EDGE('',*,*,#231,.F.);
#300=ORIENTED_EDGE('',*,*,#232,.F.);
#301=ORIENTED_EDGE('',*,*,#233,.T.);
#302=ORIENTED_EDGE('',*,*,#210,.F.);
#303=ORIENTED_EDGE('',*,*,#233,.F.);
#304=ORIENTED_EDGE('',*,*,#221,.F.);
#305=ORIENTED_EDGE('',*,*,#234,.T.);
#306=ORIENTED_EDGE('',*,*,#235,.T.);
#307=ORIENTED_EDGE('',*,*,#234,.F.);
#308=ORIENTED_EDGE('',*,*,#235,.F.);
#309=ORIENTED_EDGE('',*,*,#236,.T.);
#310=ORIENTED_EDGE('',*,*,#209,.F.);
#311=ORIENTED_EDGE('',*,*,#236,.F.);
#312=ORIENTED_EDGE('',*,*,#220,.F.);
#313=ORIENTED_EDGE('',*,*,#237,.T.);
#314=ORIENTED_EDGE('',*,*,#238,.T.);
#315=ORIENTED_EDGE('',*,*,#237,.F.);
#316=ORIENTED_EDGE('',*,*,#238,.F.);
#317=ORIENTED_EDGE('',*,*,#239,.T.);
#318=ORIENTED_EDGE('',*,*,#208,.F.);
#319=ORIENTED_EDGE('',*,*,#239,.F.);
#320=ORIENTED_EDGE('',*,*,#219,.F.);
#321=ORIENTED_EDGE('',*,*,#240,.T.);
#322=ORIENTED_EDGE('',*,*,#241,.T.);
#323=ORIENTED_EDGE('',*,*,#240,.F.);
#324=ORIENTED_EDGE('',*,*,#241,.F.);
#325=ORIENTED_EDGE('',*,*,#242,.T.);
#326=ORIENTED_EDGE('',*,*,#207,.F.);
#327=ORIENTED_EDGE('',*,*,#242,.F.);
#328=ORIENTED_EDGE('',*,*,#201,.T.);
#329=ORIENTED_EDGE('',*,*,#205,.F.);
#330=ORIENTED_EDGE('',*,*,#216,.T.);
#331=ORIENTED_EDGE('',*,*,#217,.F.);
#332=ORIENTED_EDGE('',*,*,#218,.F.);
#333=ORIENTED_EDGE('',*,*,#243,.T.);
#334=ORIENTED_EDGE('',*,*,#244,.T.);
#335=ORIENTED_EDGE('',*,*,#243,.F.);
#336=ORIENTED_EDGE('',*,*,#244,.F.);
#337=ORIENTED_EDGE('',*,*,#245,.T.);
#338=ORIENTED_EDGE('',*,*,#206,.F.);
#339=ORIENTED_EDGE('',*,*,#245,.F.);
#340=PLANE('',#380);
#341=PLANE('',#381);
#342=PLANE('',#389);
#343=PLANE('',#390);
#344=PLANE('',#391);
#345=PLANE('',#417);
#346=ADVANCED_FACE('',(#64),#340,.F.);
#347=ADVANCED_FACE('',(#65,#29,#30,#31,#32,#33,#34,#35),#341,.F.);
#348=ADVANCED_FACE('',(#66),#342,.F.);
#349=ADVANCED_FACE('',(#67),#343,.F.);
#350=ADVANCED_FACE('',(#68,#36,#37,#38,#39,#40,#41,#42),#344,.T.);
#351=ADVANCED_FACE('',(#69),#22,.F.);
#352=ADVANCED_FACE('',(#70),#15,.F.);
#353=ADVANCED_FACE('',(#71),#23,.F.);
#354=ADVANCED_FACE('',(#72),#16,.F.);
#355=ADVANCED_FACE('',(#73),#24,.F.);
#356=ADVANCED_FACE('',(#74),#17,.F.);
#357=ADVANCED_FACE('',(#75),#25,.F.);
#358=ADVANCED_FACE('',(#76),#18,.F.);
#359=ADVANCED_FACE('',(#77),#26,.F.);
#360=ADVANCED_FACE('',(#78),#19,.F.);
#361=ADVANCED_FACE('',(#79),#27,.F.);
#362=ADVANCED_FACE('',(#80),#20,.F.);
#363=ADVANCED_FACE('',(#81),#345,.F.);
#364=ADVANCED_FACE('',(#82),#28,.F.);
#365=ADVANCED_FACE('',(#83),#21,.F.);
#366=CLOSED_SHELL('',(#346,#347,#348,#349,#350,#351,#352,#353,#354,#355,
#356,#357,#358,#359,#360,#361,#362,#363,#364,#365));
#367=DERIVED_UNIT_ELEMENT(#369,1.);
#368=DERIVED_UNIT_ELEMENT(#633,-3.);
#369=(
MASS_UNIT()
NAMED_UNIT(*)
SI_UNIT(.KILO.,.GRAM.)
);
#370=DERIVED_UNIT((#367,#368));
#371=MEASURE_REPRESENTATION_ITEM('density measure',
POSITIVE_RATIO_MEASURE(7850.),#370);
#372=PROPERTY_DEFINITION_REPRESENTATION(#377,#374);
#373=PROPERTY_DEFINITION_REPRESENTATION(#378,#375);
#374=REPRESENTATION('material name',(#376),#630);
#375=REPRESENTATION('density',(#371),#630);
#376=DESCRIPTIVE_REPRESENTATION_ITEM('Stahl','Stahl');
#377=PROPERTY_DEFINITION('material property','material name',#640);
#378=PROPERTY_DEFINITION('material property','density of part',#640);
#379=AXIS2_PLACEMENT_3D('placement',#531,#421,#422);
#380=AXIS2_PLACEMENT_3D('',#532,#423,#424);
#381=AXIS2_PLACEMENT_3D('',#541,#429,#430);
#382=AXIS2_PLACEMENT_3D('',#548,#434,#435);
#383=AXIS2_PLACEMENT_3D('',#550,#436,#437);
#384=AXIS2_PLACEMENT_3D('',#552,#438,#439);
#385=AXIS2_PLACEMENT_3D('',#554,#440,#441);
#386=AXIS2_PLACEMENT_3D('',#556,#442,#443);
#387=AXIS2_PLACEMENT_3D('',#558,#444,#445);
#388=AXIS2_PLACEMENT_3D('',#560,#446,#447);
#389=AXIS2_PLACEMENT_3D('',#561,#448,#449);
#390=AXIS2_PLACEMENT_3D('',#565,#452,#453);
#391=AXIS2_PLACEMENT_3D('',#569,#456,#457);
#392=AXIS2_PLACEMENT_3D('',#572,#459,#460);
#393=AXIS2_PLACEMENT_3D('',#574,#461,#462);
#394=AXIS2_PLACEMENT_3D('',#576,#463,#464);
#395=AXIS2_PLACEMENT_3D('',#578,#465,#466);
#396=AXIS2_PLACEMENT_3D('',#580,#467,#468);
#397=AXIS2_PLACEMENT_3D('',#582,#469,#470);
#398=AXIS2_PLACEMENT_3D('',#584,#471,#472);
#399=AXIS2_PLACEMENT_3D('',#585,#473,#474);
#400=AXIS2_PLACEMENT_3D('',#588,#476,#477);
#401=AXIS2_PLACEMENT_3D('',#589,#478,#479);
#402=AXIS2_PLACEMENT_3D('',#591,#481,#482);
#403=AXIS2_PLACEMENT_3D('',#594,#484,#485);
#404=AXIS2_PLACEMENT_3D('',#595,#486,#487);
#405=AXIS2_PLACEMENT_3D('',#597,#489,#490);
#406=AXIS2_PLACEMENT_3D('',#600,#492,#493);
#407=AXIS2_PLACEMENT_3D('',#601,#494,#495);
#408=AXIS2_PLACEMENT_3D('',#603,#497,#498);
#409=AXIS2_PLACEMENT_3D('',#606,#500,#501);
#410=AXIS2_PLACEMENT_3D('',#607,#502,#503);
#411=AXIS2_PLACEMENT_3D('',#609,#505,#506);
#412=AXIS2_PLACEMENT_3D('',#612,#508,#509);
#413=AXIS2_PLACEMENT_3D('',#613,#510,#511);
#414=AXIS2_PLACEMENT_3D('',#615,#513,#514);
#415=AXIS2_PLACEMENT_3D('',#618,#516,#517);
#416=AXIS2_PLACEMENT_3D('',#619,#518,#519);
#417=AXIS2_PLACEMENT_3D('',#621,#521,#522);
#418=AXIS2_PLACEMENT_3D('',#622,#523,#524);
#419=AXIS2_PLACEMENT_3D('',#625,#526,#527);
#420=AXIS2_PLACEMENT_3D('',#626,#528,#529);
#421=DIRECTION('axis',(0.,0.,1.));
#422=DIRECTION('refdir',(1.,0.,0.));
#423=DIRECTION('center_axis',(0.,1.,0.));
#424=DIRECTION('ref_axis',(0.,0.,1.));
#425=DIRECTION('',(0.,0.,1.));
#426=DIRECTION('',(-1.,0.,0.));
#427=DIRECTION('',(0.,0.,-1.));
#428=DIRECTION('',(1.,0.,0.));
#429=DIRECTION('center_axis',(0.,0.,1.));
#430=DIRECTION('ref_axis',(1.,0.,0.));
#431=DIRECTION('',(0.,1.,0.));
#432=DIRECTION('',(1.,0.,0.));
#433=DIRECTION('',(0.,-1.,0.));
#434=DIRECTION('center_axis',(0.,0.,1.));
#435=DIRECTION('ref_axis',(1.,0.,0.));
#436=DIRECTION('center_axis',(0.,0.,1.));
#437=DIRECTION('ref_axis',(1.,0.,0.));
#438=DIRECTION('center_axis',(0.,0.,1.));
#439=DIRECTION('ref_axis',(1.,0.,0.));
#440=DIRECTION('center_axis',(0.,0.,1.));
#441=DIRECTION('ref_axis',(1.,0.,0.));
#442=DIRECTION('center_axis',(0.,0.,1.));
#443=DIRECTION('ref_axis',(1.,0.,0.));
#444=DIRECTION('center_axis',(0.,0.,1.));
#445=DIRECTION('ref_axis',(1.,0.,0.));
#446=DIRECTION('center_axis',(0.,0.,1.));
#447=DIRECTION('ref_axis',(1.,0.,0.));
#448=DIRECTION('center_axis',(1.,0.,0.));
#449=DIRECTION('ref_axis',(0.,0.,-1.));
#450=DIRECTION('',(0.,-1.,0.));
#451=DIRECTION('',(0.,0.,-1.));
#452=DIRECTION('center_axis',(0.,-1.,0.));
#453=DIRECTION('ref_axis',(0.,0.,-1.));
#454=DIRECTION('',(-1.,0.,0.));
#455=DIRECTION('',(0.,0.,1.));
#456=DIRECTION('center_axis',(0.,0.,1.));
#457=DIRECTION('ref_axis',(1.,0.,0.));
#458=DIRECTION('',(0.,1.,0.));
#459=DIRECTION('center_axis',(0.,0.,-1.));
#460=DIRECTION('ref_axis',(1.,0.,0.));
#461=DIRECTION('center_axis',(0.,0.,-1.));
#462=DIRECTION('ref_axis',(1.,0.,0.));
#463=DIRECTION('center_axis',(0.,0.,-1.));
#464=DIRECTION('ref_axis',(1.,0.,0.));
#465=DIRECTION('center_axis',(0.,0.,-1.));
#466=DIRECTION('ref_axis',(1.,0.,0.));
#467=DIRECTION('center_axis',(0.,0.,-1.));
#468=DIRECTION('ref_axis',(1.,0.,0.));
#469=DIRECTION('center_axis',(0.,0.,-1.));
#470=DIRECTION('ref_axis',(1.,0.,0.));
#471=DIRECTION('center_axis',(0.,0.,-1.));
#472=DIRECTION('ref_axis',(1.,0.,0.));
#473=DIRECTION('center_axis',(0.,0.,1.));
#474=DIRECTION('ref_axis',(1.,0.,0.));
#475=DIRECTION('',(0.707106781186547,-8.65956056235493E-17,-0.707106781186548));
#476=DIRECTION('center_axis',(0.,0.,-1.));
#477=DIRECTION('ref_axis',(1.,0.,0.));
#478=DIRECTION('center_axis',(0.,0.,-1.));
#479=DIRECTION('ref_axis',(1.,0.,0.));
#480=DIRECTION('',(0.,0.,-1.));
#481=DIRECTION('center_axis',(0.,0.,1.));
#482=DIRECTION('ref_axis',(1.,0.,0.));
#483=DIRECTION('',(0.707106781186547,-8.65956056235493E-17,-0.707106781186548));
#484=DIRECTION('center_axis',(0.,0.,-1.));
#485=DIRECTION('ref_axis',(1.,0.,0.));
#486=DIRECTION('center_axis',(0.,0.,-1.));
#487=DIRECTION('ref_axis',(1.,0.,0.));
#488=DIRECTION('',(0.,0.,-1.));
#489=DIRECTION('center_axis',(0.,0.,1.));
#490=DIRECTION('ref_axis',(1.,0.,0.));
#491=DIRECTION('',(0.707106781186547,-8.65956056235493E-17,-0.707106781186548));
#492=DIRECTION('center_axis',(0.,0.,-1.));
#493=DIRECTION('ref_axis',(1.,0.,0.));
#494=DIRECTION('center_axis',(0.,0.,-1.));
#495=DIRECTION('ref_axis',(1.,0.,0.));
#496=DIRECTION('',(0.,0.,-1.));
#497=DIRECTION('center_axis',(0.,0.,1.));
#498=DIRECTION('ref_axis',(1.,0.,0.));
#499=DIRECTION('',(0.707106781186547,-8.65956056235493E-17,-0.707106781186548));
#500=DIRECTION('center_axis',(0.,0.,-1.));
#501=DIRECTION('ref_axis',(1.,0.,0.));
#502=DIRECTION('center_axis',(0.,0.,-1.));
#503=DIRECTION('ref_axis',(1.,0.,0.));
#504=DIRECTION('',(0.,0.,-1.));
#505=DIRECTION('center_axis',(0.,0.,1.));
#506=DIRECTION('ref_axis',(1.,0.,0.));
#507=DIRECTION('',(0.707106781186547,-8.65956056235493E-17,-0.707106781186548));
#508=DIRECTION('center_axis',(0.,0.,-1.));
#509=DIRECTION('ref_axis',(1.,0.,0.));
#510=DIRECTION('center_axis',(0.,0.,-1.));
#511=DIRECTION('ref_axis',(1.,0.,0.));
#512=DIRECTION('',(0.,0.,-1.));
#513=DIRECTION('center_axis',(0.,0.,1.));
#514=DIRECTION('ref_axis',(1.,0.,0.));
#515=DIRECTION('',(0.707106781186547,-8.65956056235493E-17,-0.707106781186548));
#516=DIRECTION('center_axis',(0.,0.,-1.));
#517=DIRECTION('ref_axis',(1.,0.,0.));
#518=DIRECTION('center_axis',(0.,0.,-1.));
#519=DIRECTION('ref_axis',(1.,0.,0.));
#520=DIRECTION('',(0.,0.,-1.));
#521=DIRECTION('center_axis',(-1.,0.,0.));
#522=DIRECTION('ref_axis',(0.,0.,1.));
#523=DIRECTION('center_axis',(0.,0.,1.));
#524=DIRECTION('ref_axis',(1.,0.,0.));
#525=DIRECTION('',(0.707106781186547,-8.65956056235493E-17,-0.707106781186548));
#526=DIRECTION('center_axis',(0.,0.,-1.));
#527=DIRECTION('ref_axis',(1.,0.,0.));
#528=DIRECTION('center_axis',(0.,0.,-1.));
#529=DIRECTION('ref_axis',(1.,0.,0.));
#530=DIRECTION('',(0.,0.,-1.));
#531=CARTESIAN_POINT('',(0.,0.,0.));
#532=CARTESIAN_POINT('Origin',(-310.,-207.,0.));
#533=CARTESIAN_POINT('',(-305.,-207.,0.));
#534=CARTESIAN_POINT('',(-305.,-207.,3.));
#535=CARTESIAN_POINT('',(-305.,-207.,0.));
#536=CARTESIAN_POINT('',(305.,-207.,0.));
#537=CARTESIAN_POINT('',(-155.,-207.,0.));
#538=CARTESIAN_POINT('',(305.,-207.,3.));
#539=CARTESIAN_POINT('',(305.,-207.,0.));
#540=CARTESIAN_POINT('',(-155.,-207.,3.));
#541=CARTESIAN_POINT('Origin',(0.,-3.5527136788005E-14,0.));
#542=CARTESIAN_POINT('',(-305.,203.,0.));
#543=CARTESIAN_POINT('',(-305.,103.75,0.));
#544=CARTESIAN_POINT('',(305.,203.,0.));
#545=CARTESIAN_POINT('',(155.,203.,0.));
#546=CARTESIAN_POINT('',(305.,-103.75,0.));
#547=CARTESIAN_POINT('',(-2.5,-154.75,0.));
#548=CARTESIAN_POINT('Origin',(-5.44367418525885E-16,-154.75,0.));
#549=CARTESIAN_POINT('',(-295.5,-154.75,0.));
#550=CARTESIAN_POINT('Origin',(-293.,-154.75,0.));
#551=CARTESIAN_POINT('',(290.5,-154.75,0.));
#552=CARTESIAN_POINT('Origin',(293.,-154.75,0.));
#553=CARTESIAN_POINT('',(-295.5,154.75,0.));
#554=CARTESIAN_POINT('Origin',(-293.,154.75,0.));
#555=CARTESIAN_POINT('',(-2.5,154.75,0.));
#556=CARTESIAN_POINT('Origin',(0.,154.75,0.));
#557=CARTESIAN_POINT('',(290.5,154.75,0.));
#558=CARTESIAN_POINT('Origin',(293.,154.75,0.));
#559=CARTESIAN_POINT('',(-2.5,-1.80697300937893E-14,0.));
#560=CARTESIAN_POINT('Origin',(-5.44367418525885E-16,-1.77635683940025E-14,
0.));
#561=CARTESIAN_POINT('Origin',(-305.,207.5,0.));
#562=CARTESIAN_POINT('',(-305.,203.,3.));
#563=CARTESIAN_POINT('',(-305.,103.75,3.));
#564=CARTESIAN_POINT('',(-305.,203.,0.));
#565=CARTESIAN_POINT('Origin',(310.,203.,0.));
#566=CARTESIAN_POINT('',(305.,203.,3.));
#567=CARTESIAN_POINT('',(155.,203.,3.));
#568=CARTESIAN_POINT('',(305.,203.,0.));
#569=CARTESIAN_POINT('Origin',(0.,-3.5527136788005E-14,3.));
#570=CARTESIAN_POINT('',(305.,-103.75,3.));
#571=CARTESIAN_POINT('',(-4.5,-154.75,3.));
#572=CARTESIAN_POINT('Origin',(-5.44367418525885E-16,-154.75,3.));
#573=CARTESIAN_POINT('',(-297.5,-154.75,3.));
#574=CARTESIAN_POINT('Origin',(-293.,-154.75,3.));
#575=CARTESIAN_POINT('',(288.5,-154.75,3.));
#576=CARTESIAN_POINT('Origin',(293.,-154.75,3.));
#577=CARTESIAN_POINT('',(-297.5,154.75,3.));
#578=CARTESIAN_POINT('Origin',(-293.,154.75,3.));
#579=CARTESIAN_POINT('',(-4.5,154.75,3.));
#580=CARTESIAN_POINT('Origin',(0.,154.75,3.));
#581=CARTESIAN_POINT('',(288.5,154.75,3.));
#582=CARTESIAN_POINT('Origin',(293.,154.75,3.));
#583=CARTESIAN_POINT('',(-4.5,-1.72124773343862E-14,3.));
#584=CARTESIAN_POINT('Origin',(-5.44367418525885E-16,-1.77635683940025E-14,
3.));
#585=CARTESIAN_POINT('Origin',(-5.44367418525885E-16,-1.77635683940025E-14,
2.));
#586=CARTESIAN_POINT('',(-2.5,-1.74574066942157E-14,1.));
#587=CARTESIAN_POINT('',(-3.5,-1.73349420143009E-14,2.));
#588=CARTESIAN_POINT('Origin',(-5.44367418525885E-16,-1.77635683940025E-14,
1.));
#589=CARTESIAN_POINT('Origin',(-5.44367418525885E-16,-1.77635683940025E-14,
0.));
#590=CARTESIAN_POINT('',(-2.5,-1.74574066942157E-14,0.));
#591=CARTESIAN_POINT('Origin',(293.,154.75,2.));
#592=CARTESIAN_POINT('',(290.5,154.75,0.999999999999993));
#593=CARTESIAN_POINT('',(289.5,154.75,2.));
#594=CARTESIAN_POINT('Origin',(293.,154.75,1.));
#595=CARTESIAN_POINT('Origin',(293.,154.75,0.));
#596=CARTESIAN_POINT('',(290.5,154.75,0.));
#597=CARTESIAN_POINT('Origin',(0.,154.75,2.));
#598=CARTESIAN_POINT('',(-2.5,154.75,1.));
#599=CARTESIAN_POINT('',(-3.5,154.75,2.));
#600=CARTESIAN_POINT('Origin',(0.,154.75,1.));
#601=CARTESIAN_POINT('Origin',(0.,154.75,0.));
#602=CARTESIAN_POINT('',(-2.5,154.75,0.));
#603=CARTESIAN_POINT('Origin',(-293.,154.75,2.));
#604=CARTESIAN_POINT('',(-295.5,154.75,0.999999999999993));
#605=CARTESIAN_POINT('',(-296.5,154.75,2.));
#606=CARTESIAN_POINT('Origin',(-293.,154.75,1.));
#607=CARTESIAN_POINT('Origin',(-293.,154.75,0.));
#608=CARTESIAN_POINT('',(-295.5,154.75,0.));
#609=CARTESIAN_POINT('Origin',(293.,-154.75,2.));
#610=CARTESIAN_POINT('',(290.5,-154.75,0.999999999999993));
#611=CARTESIAN_POINT('',(289.5,-154.75,2.));
#612=CARTESIAN_POINT('Origin',(293.,-154.75,1.));
#613=CARTESIAN_POINT('Origin',(293.,-154.75,-0.5));
#614=CARTESIAN_POINT('',(290.5,-154.75,-0.5));
#615=CARTESIAN_POINT('Origin',(-293.,-154.75,2.));
#616=CARTESIAN_POINT('',(-295.5,-154.75,0.999999999999993));
#617=CARTESIAN_POINT('',(-296.5,-154.75,2.));
#618=CARTESIAN_POINT('Origin',(-293.,-154.75,1.));
#619=CARTESIAN_POINT('Origin',(-293.,-154.75,-0.5));
#620=CARTESIAN_POINT('',(-295.5,-154.75,-0.5));
#621=CARTESIAN_POINT('Origin',(305.,-207.5,0.));
#622=CARTESIAN_POINT('Origin',(-5.44367418525885E-16,-154.75,2.));
#623=CARTESIAN_POINT('',(-2.5,-154.75,1.));
#624=CARTESIAN_POINT('',(-3.5,-154.75,2.));
#625=CARTESIAN_POINT('Origin',(-5.44367418525885E-16,-154.75,1.));
#626=CARTESIAN_POINT('Origin',(-5.44367418525885E-16,-154.75,-1.));
#627=CARTESIAN_POINT('',(-2.5,-154.75,-1.));
#628=UNCERTAINTY_MEASURE_WITH_UNIT(LENGTH_MEASURE(0.01),#632,
'DISTANCE_ACCURACY_VALUE',
'Maximum model space distance between geometric entities at asserted c
onnectivities');
#629=UNCERTAINTY_MEASURE_WITH_UNIT(LENGTH_MEASURE(0.01),#632,
'DISTANCE_ACCURACY_VALUE',
'Maximum model space distance between geometric entities at asserted c
onnectivities');
#630=(
GEOMETRIC_REPRESENTATION_CONTEXT(3)
GLOBAL_UNCERTAINTY_ASSIGNED_CONTEXT((#628))
GLOBAL_UNIT_ASSIGNED_CONTEXT((#632,#634,#635))
REPRESENTATION_CONTEXT('','3D')
);
#631=(
GEOMETRIC_REPRESENTATION_CONTEXT(3)
GLOBAL_UNCERTAINTY_ASSIGNED_CONTEXT((#629))
GLOBAL_UNIT_ASSIGNED_CONTEXT((#632,#634,#635))
REPRESENTATION_CONTEXT('','3D')
);
#632=(
LENGTH_UNIT()
NAMED_UNIT(*)
SI_UNIT(.MILLI.,.METRE.)
);
#633=(
LENGTH_UNIT()
NAMED_UNIT(*)
SI_UNIT($,.METRE.)
);
#634=(
NAMED_UNIT(*)
PLANE_ANGLE_UNIT()
SI_UNIT($,.RADIAN.)
);
#635=(
NAMED_UNIT(*)
SI_UNIT($,.STERADIAN.)
SOLID_ANGLE_UNIT()
);
#636=SHAPE_DEFINITION_REPRESENTATION(#637,#638);
#637=PRODUCT_DEFINITION_SHAPE('',$,#640);
#638=SHAPE_REPRESENTATION('',(#379),#630);
#639=PRODUCT_DEFINITION_CONTEXT('part definition',#644,'design');
#640=PRODUCT_DEFINITION('Deckel_LiMax160L_2-Reihig_8 Cell',
'Deckel_LiMax160L_2-Reihig_8 Cell v11',#641,#639);
#641=PRODUCT_DEFINITION_FORMATION('',$,#646);
#642=PRODUCT_RELATED_PRODUCT_CATEGORY(
'Deckel_LiMax160L_2-Reihig_8 Cell v11',
'Deckel_LiMax160L_2-Reihig_8 Cell v11',(#646));
#643=APPLICATION_PROTOCOL_DEFINITION('international standard',
'automotive_design',2009,#644);
#644=APPLICATION_CONTEXT(
'Core Data for Automotive Mechanical Design Process');
#645=PRODUCT_CONTEXT('part definition',#644,'mechanical');
#646=PRODUCT('Deckel_LiMax160L_2-Reihig_8 Cell',
'Deckel_LiMax160L_2-Reihig_8 Cell v11',$,(#645));
#647=PRESENTATION_STYLE_ASSIGNMENT((#649));
#648=PRESENTATION_STYLE_ASSIGNMENT((#650));
#649=SURFACE_STYLE_USAGE(.BOTH.,#651);
#650=SURFACE_STYLE_USAGE(.BOTH.,#652);
#651=SURFACE_SIDE_STYLE('',(#653));
#652=SURFACE_SIDE_STYLE('',(#654));
#653=SURFACE_STYLE_FILL_AREA(#655);
#654=SURFACE_STYLE_FILL_AREA(#656);
#655=FILL_AREA_STYLE('Stahl - satiniert',(#657));
#656=FILL_AREA_STYLE('Polykarbonat (klar)',(#658));
#657=FILL_AREA_STYLE_COLOUR('Stahl - satiniert',#659);
#658=FILL_AREA_STYLE_COLOUR('Polykarbonat (klar)',#660);
#659=COLOUR_RGB('Stahl - satiniert',0.627450980392157,0.627450980392157,
0.627450980392157);
#660=COLOUR_RGB('Polykarbonat (klar)',0.964705882352941,0.964705882352941,
0.952941176470588);
ENDSEC;
END-ISO-10303-21;
